  0
SECTION
  2
HEADER
  9
$ACADVER
  1
AC1027
  9
$ACADMAINTVER
 70
   105
  9
$DWGCODEPAGE
  3
ANSI_1252
  9
$REQUIREDVERSIONS
160
                 0
  9
$INSBASE
 10
0.0
 20
0.0
 30
0.0
  9
$EXTMIN
 10
0.0
 20
0.0
 30
0.0
  9
$EXTMAX
 10
594.0
 20
420.0
 30
0.0
  9
$LIMMIN
 10
0.0
 20
0.0
  9
$LIMMAX
 10
594.0
 20
420.0
  9
$ORTHOMODE
 70
     0
  9
$REGENMODE
 70
     1
  9
$FILLMODE
 70
     1
  9
$QTEXTMODE
 70
     0
  9
$MIRRTEXT
 70
     1
  9
$LTSCALE
 40
1.0
  9
$ATTMODE
 70
     1
  9
$TEXTSIZE
 40
3.5
  9
$TRACEWID
 40
1.0
  9
$TEXTSTYLE
  7
Standard
  9
$CLAYER
  8
0
  9
$CELTYPE
  6
ByLayer
  9
$CECOLOR
 62
   256
  9
$CELTSCALE
 40
1.0
  9
$DISPSILH
 70
     0
  9
$DIMSCALE
 40
1.0
  9
$DIMASZ
 40
3.302
  9
$DIMEXO
 40
1.0
  9
$DIMDLI
 40
3.75
  9
$DIMRND
 40
0.0
  9
$DIMDLE
 40
0.0
  9
$DIMEXE
 40
1.0
  9
$DIMTP
 40
0.0
  9
$DIMTM
 40
0.0
  9
$DIMTXT
 40
3.5
  9
$DIMCEN
 40
2.5
  9
$DIMTSZ
 40
0.0
  9
$DIMTOL
 70
     0
  9
$DIMLIM
 70
     0
  9
$DIMTIH
 70
     1
  9
$DIMTOH
 70
     1
  9
$DIMSE1
 70
     0
  9
$DIMSE2
 70
     0
  9
$DIMTAD
 70
     1
  9
$DIMZIN
 70
     0
  9
$DIMBLK
  1

  9
$DIMASO
 70
     1
  9
$DIMSHO
 70
     1
  9
$DIMPOST
  1

  9
$DIMAPOST
  1

  9
$DIMALT
 70
     0
  9
$DIMALTD
 70
     3
  9
$DIMALTF
 40
0.0393700787
  9
$DIMLFAC
 40
10.0
  9
$DIMTOFL
 70
     1
  9
$DIMTVP
 40
0.0
  9
$DIMTIX
 70
     0
  9
$DIMSOXD
 70
     0
  9
$DIMSAH
 70
     0
  9
$DIMBLK1
  1

  9
$DIMBLK2
  1

  9
$DIMSTYLE
  2
ISO-25
  9
$DIMCLRD
 70
     0
  9
$DIMCLRE
 70
     0
  9
$DIMCLRT
 70
     0
  9
$DIMTFAC
 40
1.0
  9
$DIMGAP
 40
1.524
  9
$DIMJUST
 70
     0
  9
$DIMSD1
 70
     0
  9
$DIMSD2
 70
     0
  9
$DIMTOLJ
 70
     0
  9
$DIMTZIN
 70
     0
  9
$DIMALTZ
 70
     0
  9
$DIMALTTZ
 70
     0
  9
$DIMUPT
 70
     0
  9
$DIMDEC
 70
     2
  9
$DIMTDEC
 70
     2
  9
$DIMALTU
 70
     2
  9
$DIMALTTD
 70
     3
  9
$DIMTXSTY
  7
Standard
  9
$DIMAUNIT
 70
     0
  9
$DIMADEC
 70
     2
  9
$DIMALTRND
 40
0.0
  9
$DIMAZIN
 70
     0
  9
$DIMDSEP
 70
    44
  9
$DIMATFIT
 70
     3
  9
$DIMFRAC
 70
     0
  9
$DIMLDRBLK
  1

  9
$DIMLUNIT
 70
     2
  9
$DIMLWD
 70
    -2
  9
$DIMLWE
 70
    -2
  9
$DIMTMOVE
 70
     0
  9
$DIMFXL
 40
1.0
  9
$DIMFXLON
 70
     0
  9
$DIMJOGANG
 40
0.7853981634
  9
$DIMTFILL
 70
     0
  9
$DIMTFILLCLR
 70
     0
  9
$DIMARCSYM
 70
     0
  9
$DIMLTYPE
  6

  9
$DIMLTEX1
  6

  9
$DIMLTEX2
  6

  9
$DIMTXTDIRECTION
 70
     0
  9
$LUNITS
 70
     2
  9
$LUPREC
 70
     2
  9
$SKETCHINC
 40
1.0
  9
$FILLETRAD
 40
10.0
  9
$AUNITS
 70
     0
  9
$AUPREC
 70
     2
  9
$MENU
  1
.
  9
$ELEVATION
 40
0.0
  9
$PELEVATION
 40
0.0
  9
$THICKNESS
 40
0.0
  9
$LIMCHECK
 70
     0
  9
$CHAMFERA
 40
0.0
  9
$CHAMFERB
 40
0.0
  9
$CHAMFERC
 40
0.0
  9
$CHAMFERD
 40
0.0
  9
$SKPOLY
 70
     0
  9
$TDCREATE
 40
2459165.635932569
  9
$TDUCREATE
 40
2459165.594265903
  9
$TDUPDATE
 40
2459165.635933657
  9
$TDUUPDATE
 40
2459165.594266991
  9
$TDINDWG
 40
0.0000000116
  9
$TDUSRTIMER
 40
0.0000000116
  9
$USRTIMER
 70
     1
  9
$ANGBASE
 50
0.0
  9
$ANGDIR
 70
     0
  9
$PDMODE
 70
     0
  9
$PDSIZE
 40
-1.0
  9
$PLINEWID
 40
0.0
  9
$SPLFRAME
 70
     0
  9
$SPLINETYPE
 70
     6
  9
$SPLINESEGS
 70
     8
  9
$HANDSEED
  5
20B
  9
$SURFTAB1
 70
     6
  9
$SURFTAB2
 70
     6
  9
$SURFTYPE
 70
     6
  9
$SURFU
 70
     6
  9
$SURFV
 70
     6
  9
$UCSBASE
  2

  9
$UCSNAME
  2

  9
$UCSORG
 10
0.0
 20
0.0
 30
0.0
  9
$UCSXDIR
 10
1.0
 20
0.0
 30
0.0
  9
$UCSYDIR
 10
0.0
 20
1.0
 30
0.0
  9
$UCSORTHOREF
  2

  9
$UCSORTHOVIEW
 70
     0
  9
$UCSORGTOP
 10
0.0
 20
0.0
 30
0.0
  9
$UCSORGBOTTOM
 10
0.0
 20
0.0
 30
0.0
  9
$UCSORGLEFT
 10
0.0
 20
0.0
 30
0.0
  9
$UCSORGRIGHT
 10
0.0
 20
0.0
 30
0.0
  9
$UCSORGFRONT
 10
0.0
 20
0.0
 30
0.0
  9
$UCSORGBACK
 10
0.0
 20
0.0
 30
0.0
  9
$PUCSBASE
  2

  9
$PUCSNAME
  2

  9
$PUCSORG
 10
0.0
 20
0.0
 30
0.0
  9
$PUCSXDIR
 10
1.0
 20
0.0
 30
0.0
  9
$PUCSYDIR
 10
0.0
 20
1.0
 30
0.0
  9
$PUCSORTHOREF
  2

  9
$PUCSORTHOVIEW
 70
     0
  9
$PUCSORGTOP
 10
0.0
 20
0.0
 30
0.0
  9
$PUCSORGBOTTOM
 10
0.0
 20
0.0
 30
0.0
  9
$PUCSORGLEFT
 10
0.0
 20
0.0
 30
0.0
  9
$PUCSORGRIGHT
 10
0.0
 20
0.0
 30
0.0
  9
$PUCSORGFRONT
 10
0.0
 20
0.0
 30
0.0
  9
$PUCSORGBACK
 10
0.0
 20
0.0
 30
0.0
  9
$USERI1
 70
     0
  9
$USERI2
 70
     0
  9
$USERI3
 70
     0
  9
$USERI4
 70
     0
  9
$USERI5
 70
     0
  9
$USERR1
 40
0.0
  9
$USERR2
 40
0.0
  9
$USERR3
 40
0.0
  9
$USERR4
 40
0.0
  9
$USERR5
 40
0.0
  9
$WORLDVIEW
 70
     1
  9
$SHADEDGE
 70
     3
  9
$SHADEDIF
 70
    70
  9
$TILEMODE
 70
     1
  9
$MAXACTVP
 70
    64
  9
$PINSBASE
 10
0.0
 20
0.0
 30
0.0
  9
$PLIMCHECK
 70
     0
  9
$PEXTMIN
 10
1.0000000000E+20
 20
1.0000000000E+20
 30
1.0000000000E+20
  9
$PEXTMAX
 10
-1.0000000000E+20
 20
-1.0000000000E+20
 30
-1.0000000000E+20
  9
$PLIMMIN
 10
0.0
 20
0.0
  9
$PLIMMAX
 10
420.0
 20
297.0
  9
$UNITMODE
 70
     0
  9
$VISRETAIN
 70
     1
  9
$PLINEGEN
 70
     0
  9
$PSLTSCALE
 70
     1
  9
$TREEDEPTH
 70
  3020
  9
$CMLSTYLE
  2
Standard
  9
$CMLJUST
 70
     0
  9
$CMLSCALE
 40
20.0
  9
$PROXYGRAPHICS
 70
     1
  9
$MEASUREMENT
 70
     1
  9
$CELWEIGHT
370
    -1
  9
$ENDCAPS
280
     0
  9
$JOINSTYLE
280
     0
  9
$LWDISPLAY
290
     1
  9
$INSUNITS
 70
     4
  9
$HYPERLINKBASE
  1

  9
$STYLESHEET
  1

  9
$XEDIT
290
     1
  9
$CEPSNTYPE
380
     0
  9
$PSTYLEMODE
290
     1
  9
$FINGERPRINTGUID
  2
{3C20241A-F651-4468-BD49-B6F7DFA99BB2}
  9
$VERSIONGUID
  2
{FAEB1C32-E019-11D5-929B-00C0DF256EC4}
  9
$EXTNAMES
290
     1
  9
$PSVPSCALE
 40
0.0
  9
$OLESTARTUP
290
     0
  9
$SORTENTS
280
   127
  9
$INDEXCTL
280
     0
  9
$HIDETEXT
280
     1
  9
$XCLIPFRAME
280
     2
  9
$HALOGAP
280
     0
  9
$OBSCOLOR
 70
   257
  9
$OBSLTYPE
280
     0
  9
$INTERSECTIONDISPLAY
280
     0
  9
$INTERSECTIONCOLOR
 70
   257
  9
$DIMASSOC
280
     2
  9
$PROJECTNAME
  1

  9
$CAMERADISPLAY
290
     0
  9
$LENSLENGTH
 40
50.0
  9
$CAMERAHEIGHT
 40
0.0
  9
$STEPSPERSEC
 40
2.0
  9
$STEPSIZE
 40
6.0
  9
$3DDWFPREC
 40
2.0
  9
$PSOLWIDTH
 40
5.0
  9
$PSOLHEIGHT
 40
80.0
  9
$LOFTANG1
 40
1.5707963268
  9
$LOFTANG2
 40
1.5707963268
  9
$LOFTMAG1
 40
0.0
  9
$LOFTMAG2
 40
0.0
  9
$LOFTPARAM
 70
     7
  9
$LOFTNORMALS
280
     1
  9
$LATITUDE
 40
37.795
  9
$LONGITUDE
 40
-122.394
  9
$NORTHDIRECTION
 40
0.0
  9
$TIMEZONE
 70
 -8000
  9
$LIGHTGLYPHDISPLAY
280
     1
  9
$TILEMODELIGHTSYNCH
280
     1
  9
$CMATERIAL
347
44
  9
$SOLIDHIST
280
     0
  9
$SHOWHIST
280
     1
  9
$DWFFRAME
280
     2
  9
$DGNFRAME
280
     2
  9
$REALWORLDSCALE
290
     1
  9
$INTERFERECOLOR
 62
   256
  9
$CSHADOW
280
     0
  9
$SHADOWPLANELOCATION
 40
0.0
  0
ENDSEC
  0
SECTION
  2
CLASSES
  0
CLASS
  1
ACDBDICTIONARYWDFLT
  2
AcDbDictionaryWithDefault
  3
ObjectDBX Classes
 90
        0
 91
        4
280
     0
281
     0
  0
CLASS
  1
VISUALSTYLE
  2
AcDbVisualStyle
  3
ObjectDBX Classes
 90
     4095
 91
        4
280
     0
281
     0
  0
CLASS
  1
MATERIAL
  2
AcDbMaterial
  3
ObjectDBX Classes
 90
     1153
 91
        4
280
     0
281
     0
  0
CLASS
  1
SCALE
  2
AcDbScale
  3
ObjectDBX Classes
 90
     1153
 91
        4
280
     0
281
     0
  0
CLASS
  1
TABLESTYLE
  2
AcDbTableStyle
  3
ObjectDBX Classes
 90
     4095
 91
        4
280
     0
281
     0
  0
CLASS
  1
MLEADERSTYLE
  2
AcDbMLeaderStyle
  3
ACDB_MLEADERSTYLE_CLASS
 90
     4095
 91
        4
280
     0
281
     0
  0
CLASS
  1
SUN
  2
AcDbSun
  3
SCENEOE
 90
     1153
 91
        4
280
     0
281
     0
  0
CLASS
  1
DICTIONARYVAR
  2
AcDbDictionaryVar
  3
ObjectDBX Classes
 90
        0
 91
        4
280
     0
281
     0
  0
CLASS
  1
CELLSTYLEMAP
  2
AcDbCellStyleMap
  3
ObjectDBX Classes
 90
     1152
 91
        4
280
     0
281
     0
  0
ENDSEC
  0
SECTION
  2
TABLES
  0
TABLE
  2
VPORT
  5
8
330
0
100
AcDbSymbolTable
 70
     1
  0
VPORT
  5
29
330
8
100
AcDbSymbolTableRecord
100
AcDbViewportTableRecord
  2
*Active
 70
     0
 10
0.0
 20
0.0
 11
1.0
 21
1.0
 12
297.0
 22
210.0
 13
0.0
 23
0.0
 14
10.0
 24
10.0
 15
10.0
 25
10.0
 16
0.0
 26
0.0
 36
1.0
 17
0.0
 27
0.0
 37
0.0
 40
420.0
 41
1.4142857143
 42
50.0
 43
0.0
 44
0.0
 50
0.0
 51
0.0
 71
     0
 72
  2000
 73
     1
 74
     3
 75
     0
 76
     0
 77
     0
 78
     0
281
     0
 65
     1
110
0.0
120
0.0
130
0.0
111
1.0
121
0.0
131
0.0
112
0.0
122
1.0
132
0.0
 79
     0
146
0.0
348
2F
 60
     3
 61
     5
292
     1
282
     1
141
0.0
142
0.0
 63
   250
361
6D
  0
ENDTAB
  0
TABLE
  2
LTYPE
  5
5
330
0
100
AcDbSymbolTable
 70
     6
  0
LTYPE
  5
14
330
5
100
AcDbSymbolTableRecord
100
AcDbLinetypeTableRecord
  2
ByBlock
 70
     0
  3

 72
    65
 73
     0
 40
0.0
  0
LTYPE
  5
15
330
5
100
AcDbSymbolTableRecord
100
AcDbLinetypeTableRecord
  2
ByLayer
 70
     0
  3

 72
    65
 73
     0
 40
0.0
  0
LTYPE
  5
16
330
5
100
AcDbSymbolTableRecord
100
AcDbLinetypeTableRecord
  2
Continuous
 70
     0
  3
Solid line
 72
    65
 73
     0
 40
0.0
  0
LTYPE
  5
6E
330
5
100
AcDbSymbolTableRecord
100
AcDbLinetypeTableRecord
  2
HIDDEN
 70
     0
  3
Hidden __ __ __ __ __ __ __ __ __ __ __ __ __ __
 72
    65
 73
     2
 40
1.905
 49
1.27
 74
     0
 49
-0.635
 74
     0
  0
LTYPE
  5
6F
330
5
100
AcDbSymbolTableRecord
100
AcDbLinetypeTableRecord
  2
PHANTOM
 70
     0
  3
Phantom ______  __  __  ______  __  __  ______
 72
    65
 73
     6
 40
12.7
 49
6.35
 74
     0
 49
-1.27
 74
     0
 49
1.27
 74
     0
 49
-1.27
 74
     0
 49
1.27
 74
     0
 49
-1.27
 74
     0
  0
LTYPE
  5
70
330
5
100
AcDbSymbolTableRecord
100
AcDbLinetypeTableRecord
  2
CENTER
 70
     0
  3
Center ____ _ ____ _ ____ _ ____ _ ____ _ ____
 72
    65
 73
     4
 40
10.16
 49
6.35
 74
     0
 49
-1.27
 74
     0
 49
1.27
 74
     0
 49
-1.27
 74
     0
  0
LTYPE
  5
71
330
5
100
AcDbSymbolTableRecord
100
AcDbLinetypeTableRecord
  2
CENTERX2
 70
     0
  3
Center (2x) ________  __  ________  __  _____
 72
    65
 73
     4
 40
20.32
 49
12.7
 74
     0
 49
-2.54
 74
     0
 49
2.54
 74
     0
 49
-2.54
 74
     0
  0
LTYPE
  5
72
330
5
100
AcDbSymbolTableRecord
100
AcDbLinetypeTableRecord
  2
DOT2
 70
     0
  3
Dot (.5x) ........................................
 72
    65
 73
     2
 40
0.635
 49
0.0
 74
     0
 49
-0.635
 74
     0
  0
ENDTAB
  0
TABLE
  2
LAYER
  5
2
330
0
100
AcDbSymbolTable
 70
    37
  0
LAYER
  5
10
330
2
100
AcDbSymbolTableRecord
100
AcDbLayerTableRecord
  2
0
 70
     0
 62
     7
  6
Continuous
370
    -3
390
F
347
46
348
0
  0
LAYER
  5
73
330
2
100
AcDbSymbolTableRecord
100
AcDbLayerTableRecord
  2
SLD-0
 70
     0
 62
     7
  6
Continuous
370
    -3
390
F
347
46
348
0
  0
LAYER
  5
74
330
2
100
AcDbSymbolTableRecord
100
AcDbLayerTableRecord
  2
RAHMEN025
 70
     0
 62
     7
  6
Continuous
370
    -3
390
F
347
46
348
0
  0
LAYER
  5
75
330
2
100
AcDbSymbolTableRecord
100
AcDbLayerTableRecord
  2
RAHMEN07
 70
     0
 62
     5
  6
Continuous
370
    -3
390
F
347
46
348
0
  0
LAYER
  5
76
330
2
100
AcDbSymbolTableRecord
100
AcDbLayerTableRecord
  2
RAHMEN05
 70
     0
 62
     6
  6
Continuous
370
    -3
390
F
347
46
348
0
  0
LAYER
  5
77
330
2
100
AcDbSymbolTableRecord
100
AcDbLayerTableRecord
  2
TB
 70
     0
 62
     7
  6
Continuous
370
    -3
390
F
347
46
348
0
  0
LAYER
  5
78
330
2
100
AcDbSymbolTableRecord
100
AcDbLayerTableRecord
  2
1-VIDNO
 70
     0
 62
     5
  6
Continuous
370
    -3
390
F
347
46
348
0
  0
LAYER
  5
79
330
2
100
AcDbSymbolTableRecord
100
AcDbLayerTableRecord
  2
2-NEVIDNO
 70
     0
 62
     5
  6
HIDDEN
370
    -3
390
F
347
46
348
0
  0
LAYER
  5
7A
330
2
100
AcDbSymbolTableRecord
100
AcDbLayerTableRecord
  2
O-GLAVE
 70
     0
 62
     5
  6
Continuous
370
    -3
390
F
347
46
348
0
  0
LAYER
  5
7B
330
2
100
AcDbSymbolTableRecord
100
AcDbLayerTableRecord
  2
O-TEKST
 70
     0
 62
     7
  6
Continuous
370
    -3
390
F
347
46
348
0
  0
LAYER
  5
7C
330
2
100
AcDbSymbolTableRecord
100
AcDbLayerTableRecord
  2
O-ZUNANJI
 70
     0
 62
     7
  6
Continuous
370
    -3
390
F
347
46
348
0
  0
LAYER
  5
7D
330
2
100
AcDbSymbolTableRecord
100
AcDbLayerTableRecord
  2
SLD-DEFPOINTS
 70
     0
 62
     7
  6
Continuous
370
    -3
390
F
347
46
348
0
  0
LAYER
  5
7E
330
2
100
AcDbSymbolTableRecord
100
AcDbLayerTableRecord
  2
3-POMOZNO
 70
     0
 62
     4
  6
Continuous
370
    -3
390
F
347
46
348
0
  0
LAYER
  5
7F
330
2
100
AcDbSymbolTableRecord
100
AcDbLayerTableRecord
  2
4-SREDNJICA
 70
     0
 62
     1
  6
CENTER
370
    -3
390
F
347
46
348
0
  0
LAYER
  5
80
330
2
100
AcDbSymbolTableRecord
100
AcDbLayerTableRecord
  2
5-SRAFURA
 70
     0
 62
     7
  6
Continuous
370
    -3
390
F
347
46
348
0
  0
LAYER
  5
81
330
2
100
AcDbSymbolTableRecord
100
AcDbLayerTableRecord
  2
6-KOTE
 70
     0
 62
     7
  6
Continuous
370
    -3
390
F
347
46
348
0
  0
LAYER
  5
82
330
2
100
AcDbSymbolTableRecord
100
AcDbLayerTableRecord
  2
7-TEKST
 70
     0
 62
     7
  6
Continuous
370
    -3
390
F
347
46
348
0
  0
LAYER
  5
83
330
2
100
AcDbSymbolTableRecord
100
AcDbLayerTableRecord
  2
8-VARJENJA
 70
     0
 62
     1
  6
Continuous
370
    -3
390
F
347
46
348
0
  0
LAYER
  5
84
330
2
100
AcDbSymbolTableRecord
100
AcDbLayerTableRecord
  2
BEMASSUNG
 70
     0
 62
     7
  6
Continuous
370
    -3
390
F
347
46
348
0
  0
LAYER
  5
85
330
2
100
AcDbSymbolTableRecord
100
AcDbLayerTableRecord
  2
UMRISS03
 70
     0
 62
     7
  6
Continuous
370
    -3
390
F
347
46
348
0
  0
LAYER
  5
86
330
2
100
AcDbSymbolTableRecord
100
AcDbLayerTableRecord
  2
UMRISS02
 70
     0
 62
     7
  6
Continuous
370
    -3
390
F
347
46
348
0
  0
LAYER
  5
87
330
2
100
AcDbSymbolTableRecord
100
AcDbLayerTableRecord
  2
HILFSLINIEN
 70
     0
 62
     7
  6
Continuous
370
    -3
390
F
347
46
348
0
  0
LAYER
  5
88
330
2
100
AcDbSymbolTableRecord
100
AcDbLayerTableRecord
  2
UMRISS03_-PSPAC_
 70
     0
 62
     7
  6
Continuous
370
    -3
390
F
347
46
348
0
  0
LAYER
  5
89
330
2
100
AcDbSymbolTableRecord
100
AcDbLayerTableRecord
  2
ACA_VARSAVE
 70
     0
 62
     7
  6
Continuous
370
    -3
390
F
347
46
348
0
  0
LAYER
  5
8A
330
2
100
AcDbSymbolTableRecord
100
AcDbLayerTableRecord
  2
KONTUREN
 70
     0
 62
     7
  6
Continuous
370
    -3
390
F
347
46
348
0
  0
LAYER
  5
8B
330
2
100
AcDbSymbolTableRecord
100
AcDbLayerTableRecord
  2
ACHSE
 70
     0
 62
     7
  6
Continuous
370
    -3
390
F
347
46
348
0
  0
LAYER
  5
8C
330
2
100
AcDbSymbolTableRecord
100
AcDbLayerTableRecord
  2
UNSICHTBAR
 70
     0
 62
     7
  6
Continuous
370
    -3
390
F
347
46
348
0
  0
LAYER
  5
8D
330
2
100
AcDbSymbolTableRecord
100
AcDbLayerTableRecord
  2
MASSE
 70
     0
 62
     7
  6
Continuous
370
    -3
390
F
347
46
348
0
  0
LAYER
  5
8E
330
2
100
AcDbSymbolTableRecord
100
AcDbLayerTableRecord
  2
RAND
 70
     0
 62
     7
  6
Continuous
370
    -3
390
F
347
46
348
0
  0
LAYER
  5
8F
330
2
100
AcDbSymbolTableRecord
100
AcDbLayerTableRecord
  2
D-TEXT
 70
     0
 62
     7
  6
Continuous
370
    -3
390
F
347
46
348
0
  0
LAYER
  5
90
330
2
100
AcDbSymbolTableRecord
100
AcDbLayerTableRecord
  2
F-TEXT
 70
     0
 62
     7
  6
Continuous
370
    -3
390
F
347
46
348
0
  0
LAYER
  5
91
330
2
100
AcDbSymbolTableRecord
100
AcDbLayerTableRecord
  2
I-TEXT
 70
     0
 62
     7
  6
Continuous
370
    -3
390
F
347
46
348
0
  0
LAYER
  5
92
330
2
100
AcDbSymbolTableRecord
100
AcDbLayerTableRecord
  2
D-TEXT-FETT
 70
     0
 62
     7
  6
Continuous
370
    -3
390
F
347
46
348
0
  0
LAYER
  5
93
330
2
100
AcDbSymbolTableRecord
100
AcDbLayerTableRecord
  2
F-TEXT-FETT
 70
     0
 62
     7
  6
Continuous
370
    -3
390
F
347
46
348
0
  0
LAYER
  5
94
330
2
100
AcDbSymbolTableRecord
100
AcDbLayerTableRecord
  2
I-TEXT-FETT
 70
     0
 62
     7
  6
Continuous
370
    -3
390
F
347
46
348
0
  0
LAYER
  5
95
330
2
100
AcDbSymbolTableRecord
100
AcDbLayerTableRecord
  2
TEXT-D-F-I
 70
     0
 62
     7
  6
Continuous
370
    -3
390
F
347
46
348
0
  0
LAYER
  5
96
330
2
100
AcDbSymbolTableRecord
100
AcDbLayerTableRecord
  2
TEXT-D-F-I-FETT
 70
     0
 62
     7
  6
Continuous
370
    -3
390
F
347
46
348
0
  0
ENDTAB
  0
TABLE
  2
STYLE
  5
3
330
0
100
AcDbSymbolTable
 70
     2
  0
STYLE
  5
11
330
3
100
AcDbSymbolTableRecord
100
AcDbTextStyleTableRecord
  2
Standard
 70
     0
 40
0.0
 41
1.0
 50
0.0
 71
     0
 42
3.5
  3
txt
  4

  0
STYLE
  5
F7
330
3
100
AcDbSymbolTableRecord
100
AcDbTextStyleTableRecord
  2
SLDTEXTSTYLE0
 70
     0
 40
0.0
 41
0.75
 50
0.0
 71
     0
 42
3.5
  3
TXT
  4

  0
ENDTAB
  0
TABLE
  2
VIEW
  5
6
330
0
100
AcDbSymbolTable
 70
     0
  0
ENDTAB
  0
TABLE
  2
UCS
  5
7
330
0
100
AcDbSymbolTable
 70
     0
  0
ENDTAB
  0
TABLE
  2
APPID
  5
9
330
0
100
AcDbSymbolTable
 70
     1
  0
APPID
  5
12
330
9
100
AcDbSymbolTableRecord
100
AcDbRegAppTableRecord
  2
ACAD
 70
     0
  0
ENDTAB
  0
TABLE
  2
DIMSTYLE
  5
A
330
0
100
AcDbSymbolTable
 70
     1
100
AcDbDimStyleTable
  0
DIMSTYLE
105
27
330
A
100
AcDbSymbolTableRecord
100
AcDbDimStyleTableRecord
  2
ISO-25
 70
     0
 41
2.5
 42
0.625
 43
3.75
 44
1.25
 73
     0
 74
     0
 77
     1
 78
     8
140
2.5
141
2.5
143
0.0393700787
147
0.625
171
     3
172
     1
178
     0
271
     2
272
     2
274
     3
278
    44
283
     0
284
     8
340
11
  0
ENDTAB
  0
TABLE
  2
BLOCK_RECORD
  5
1
330
0
100
AcDbSymbolTable
 70
     7
  0
BLOCK_RECORD
  5
1F
330
1
100
AcDbSymbolTableRecord
100
AcDbBlockTableRecord
  2
*Model_Space
340
22
 70
     0
280
     1
281
     0
  0
BLOCK_RECORD
  5
1B
330
1
100
AcDbSymbolTableRecord
100
AcDbBlockTableRecord
  2
*Paper_Space
340
1E
 70
     0
280
     1
281
     0
  0
BLOCK_RECORD
  5
23
330
1
100
AcDbSymbolTableRecord
100
AcDbBlockTableRecord
  2
*Paper_Space0
340
26
 70
     0
280
     1
281
     0
  0
BLOCK_RECORD
  5
C2
330
1
100
AcDbSymbolTableRecord
100
AcDbBlockTableRecord
  2
SW_CENTERMARKSYMBOL_0
340
0
102
{BLKREFS
331
CD
102
}
 70
     0
280
     1
281
     0
  0
BLOCK_RECORD
  5
CE
330
1
100
AcDbSymbolTableRecord
100
AcDbBlockTableRecord
  2
SW_CENTERMARKSYMBOL_1
340
0
102
{BLKREFS
331
D9
102
}
 70
     0
280
     1
281
     0
  0
BLOCK_RECORD
  5
DA
330
1
100
AcDbSymbolTableRecord
100
AcDbBlockTableRecord
  2
SW_CENTERMARKSYMBOL_2
340
0
102
{BLKREFS
331
E5
102
}
 70
     0
280
     1
281
     0
  0
BLOCK_RECORD
  5
E6
330
1
100
AcDbSymbolTableRecord
100
AcDbBlockTableRecord
  2
SW_CENTERMARKSYMBOL_3
340
0
102
{BLKREFS
331
F1
102
}
 70
     0
280
     1
281
     0
  0
BLOCK_RECORD
  5
121
330
1
100
AcDbSymbolTableRecord
100
AcDbBlockTableRecord
  2
SW_NOTE_0
340
0
102
{BLKREFS
331
126
102
}
 70
     0
280
     1
281
     0
  0
BLOCK_RECORD
  5
14F
330
1
100
AcDbSymbolTableRecord
100
AcDbBlockTableRecord
  2
SW_NOTE_1
340
0
102
{BLKREFS
331
154
102
}
 70
     0
280
     1
281
     0
  0
ENDTAB
  0
ENDSEC
  0
SECTION
  2
BLOCKS
  0
BLOCK
  5
20
330
1F
100
AcDbEntity
  8
0
100
AcDbBlockBegin
  2
*Model_Space
 70
     0
 10
0.0
 20
0.0
 30
0.0
  3
*Model_Space
  1

  0
ENDBLK
  5
21
330
1F
100
AcDbEntity
  8
0
100
AcDbBlockEnd
  0
BLOCK
  5
1C
330
1B
100
AcDbEntity
 67
     1
  8
0
100
AcDbBlockBegin
  2
*Paper_Space
 70
     0
 10
0.0
 20
0.0
 30
0.0
  3
*Paper_Space
  1

  0
ENDBLK
  5
1D
330
1B
100
AcDbEntity
 67
     1
  8
0
100
AcDbBlockEnd
  0
BLOCK
  5
24
330
23
100
AcDbEntity
  8
0
100
AcDbBlockBegin
  2
*Paper_Space0
 70
     0
 10
0.0
 20
0.0
 30
0.0
  3
*Paper_Space0
  1

  0
ENDBLK
  5
25
330
23
100
AcDbEntity
  8
0
100
AcDbBlockEnd
  0
BLOCK
  5
C3
330
C2
100
AcDbEntity
  8
0
100
AcDbBlockBegin
  2
SW_CENTERMARKSYMBOL_0
 70
     0
 10
0.0
 20
0.0
 30
0.0
  3
SW_CENTERMARKSYMBOL_0
  1

  0
LINE
  5
C5
330
C2
100
AcDbEntity
  8
O-TEKST
 62
     0
100
AcDbLine
 10
0.0
 20
0.0
 30
0.0
 11
0.0
 21
0.25
 31
0.0
  0
LINE
  5
C6
330
C2
100
AcDbEntity
  8
O-TEKST
 62
     0
100
AcDbLine
 10
0.0
 20
0.0
 30
0.0
 11
-0.25
 21
0.0
 31
0.0
  0
LINE
  5
C7
330
C2
100
AcDbEntity
  8
O-TEKST
 62
     0
100
AcDbLine
 10
0.0
 20
0.0
 30
0.0
 11
0.0
 21
-0.25
 31
0.0
  0
LINE
  5
C8
330
C2
100
AcDbEntity
  8
O-TEKST
 62
     0
100
AcDbLine
 10
0.0
 20
0.0
 30
0.0
 11
0.25
 21
0.0
 31
0.0
  0
LINE
  5
C9
330
C2
100
AcDbEntity
  8
O-TEKST
 62
     0
100
AcDbLine
 10
0.0
 20
0.5
 30
0.0
 11
0.0
 21
2.25
 31
0.0
  0
LINE
  5
CA
330
C2
100
AcDbEntity
  8
O-TEKST
 62
     0
100
AcDbLine
 10
-0.5
 20
0.0
 30
0.0
 11
-2.25
 21
0.0
 31
0.0
  0
LINE
  5
CB
330
C2
100
AcDbEntity
  8
O-TEKST
 62
     0
100
AcDbLine
 10
0.0
 20
-0.5
 30
0.0
 11
0.0
 21
-2.25
 31
0.0
  0
LINE
  5
CC
330
C2
100
AcDbEntity
  8
O-TEKST
 62
     0
100
AcDbLine
 10
0.5
 20
0.0
 30
0.0
 11
2.25
 21
0.0
 31
0.0
  0
ENDBLK
  5
C4
330
C2
100
AcDbEntity
  8
0
100
AcDbBlockEnd
  0
BLOCK
  5
CF
330
CE
100
AcDbEntity
  8
0
100
AcDbBlockBegin
  2
SW_CENTERMARKSYMBOL_1
 70
     0
 10
0.0
 20
0.0
 30
0.0
  3
SW_CENTERMARKSYMBOL_1
  1

  0
LINE
  5
D1
330
CE
100
AcDbEntity
  8
O-TEKST
 62
     0
100
AcDbLine
 10
0.0
 20
0.0
 30
0.0
 11
0.0
 21
0.25
 31
0.0
  0
LINE
  5
D2
330
CE
100
AcDbEntity
  8
O-TEKST
 62
     0
100
AcDbLine
 10
0.0
 20
0.0
 30
0.0
 11
-0.25
 21
0.0
 31
0.0
  0
LINE
  5
D3
330
CE
100
AcDbEntity
  8
O-TEKST
 62
     0
100
AcDbLine
 10
0.0
 20
0.0
 30
0.0
 11
0.0
 21
-0.25
 31
0.0
  0
LINE
  5
D4
330
CE
100
AcDbEntity
  8
O-TEKST
 62
     0
100
AcDbLine
 10
0.0
 20
0.0
 30
0.0
 11
0.25
 21
0.0
 31
0.0
  0
LINE
  5
D5
330
CE
100
AcDbEntity
  8
O-TEKST
 62
     0
100
AcDbLine
 10
0.0
 20
0.5
 30
0.0
 11
0.0
 21
2.25
 31
0.0
  0
LINE
  5
D6
330
CE
100
AcDbEntity
  8
O-TEKST
 62
     0
100
AcDbLine
 10
-0.5
 20
0.0
 30
0.0
 11
-2.25
 21
0.0
 31
0.0
  0
LINE
  5
D7
330
CE
100
AcDbEntity
  8
O-TEKST
 62
     0
100
AcDbLine
 10
0.0
 20
-0.5
 30
0.0
 11
0.0
 21
-2.25
 31
0.0
  0
LINE
  5
D8
330
CE
100
AcDbEntity
  8
O-TEKST
 62
     0
100
AcDbLine
 10
0.5
 20
0.0
 30
0.0
 11
2.25
 21
0.0
 31
0.0
  0
ENDBLK
  5
D0
330
CE
100
AcDbEntity
  8
0
100
AcDbBlockEnd
  0
BLOCK
  5
DB
330
DA
100
AcDbEntity
  8
0
100
AcDbBlockBegin
  2
SW_CENTERMARKSYMBOL_2
 70
     0
 10
0.0
 20
0.0
 30
0.0
  3
SW_CENTERMARKSYMBOL_2
  1

  0
LINE
  5
DD
330
DA
100
AcDbEntity
  8
O-TEKST
 62
     0
100
AcDbLine
 10
0.0
 20
0.0
 30
0.0
 11
0.0
 21
0.25
 31
0.0
  0
LINE
  5
DE
330
DA
100
AcDbEntity
  8
O-TEKST
 62
     0
100
AcDbLine
 10
0.0
 20
0.0
 30
0.0
 11
-0.25
 21
0.0
 31
0.0
  0
LINE
  5
DF
330
DA
100
AcDbEntity
  8
O-TEKST
 62
     0
100
AcDbLine
 10
0.0
 20
0.0
 30
0.0
 11
0.0
 21
-0.25
 31
0.0
  0
LINE
  5
E0
330
DA
100
AcDbEntity
  8
O-TEKST
 62
     0
100
AcDbLine
 10
0.0
 20
0.0
 30
0.0
 11
0.25
 21
0.0
 31
0.0
  0
LINE
  5
E1
330
DA
100
AcDbEntity
  8
O-TEKST
 62
     0
100
AcDbLine
 10
0.0
 20
0.5
 30
0.0
 11
0.0
 21
2.25
 31
0.0
  0
LINE
  5
E2
330
DA
100
AcDbEntity
  8
O-TEKST
 62
     0
100
AcDbLine
 10
-0.5
 20
0.0
 30
0.0
 11
-2.25
 21
0.0
 31
0.0
  0
LINE
  5
E3
330
DA
100
AcDbEntity
  8
O-TEKST
 62
     0
100
AcDbLine
 10
0.0
 20
-0.5
 30
0.0
 11
0.0
 21
-2.25
 31
0.0
  0
LINE
  5
E4
330
DA
100
AcDbEntity
  8
O-TEKST
 62
     0
100
AcDbLine
 10
0.5
 20
0.0
 30
0.0
 11
2.25
 21
0.0
 31
0.0
  0
ENDBLK
  5
DC
330
DA
100
AcDbEntity
  8
0
100
AcDbBlockEnd
  0
BLOCK
  5
E7
330
E6
100
AcDbEntity
  8
0
100
AcDbBlockBegin
  2
SW_CENTERMARKSYMBOL_3
 70
     0
 10
0.0
 20
0.0
 30
0.0
  3
SW_CENTERMARKSYMBOL_3
  1

  0
LINE
  5
E9
330
E6
100
AcDbEntity
  8
O-TEKST
 62
     0
100
AcDbLine
 10
0.0
 20
0.0
 30
0.0
 11
0.0
 21
0.25
 31
0.0
  0
LINE
  5
EA
330
E6
100
AcDbEntity
  8
O-TEKST
 62
     0
100
AcDbLine
 10
0.0
 20
0.0
 30
0.0
 11
-0.25
 21
0.0
 31
0.0
  0
LINE
  5
EB
330
E6
100
AcDbEntity
  8
O-TEKST
 62
     0
100
AcDbLine
 10
0.0
 20
0.0
 30
0.0
 11
0.0
 21
-0.25
 31
0.0
  0
LINE
  5
EC
330
E6
100
AcDbEntity
  8
O-TEKST
 62
     0
100
AcDbLine
 10
0.0
 20
0.0
 30
0.0
 11
0.25
 21
0.0
 31
0.0
  0
LINE
  5
ED
330
E6
100
AcDbEntity
  8
O-TEKST
 62
     0
100
AcDbLine
 10
0.0
 20
0.5
 30
0.0
 11
0.0
 21
2.25
 31
0.0
  0
LINE
  5
EE
330
E6
100
AcDbEntity
  8
O-TEKST
 62
     0
100
AcDbLine
 10
-0.5
 20
0.0
 30
0.0
 11
-2.25
 21
0.0
 31
0.0
  0
LINE
  5
EF
330
E6
100
AcDbEntity
  8
O-TEKST
 62
     0
100
AcDbLine
 10
0.0
 20
-0.5
 30
0.0
 11
0.0
 21
-2.25
 31
0.0
  0
LINE
  5
F0
330
E6
100
AcDbEntity
  8
O-TEKST
 62
     0
100
AcDbLine
 10
0.5
 20
0.0
 30
0.0
 11
2.25
 21
0.0
 31
0.0
  0
ENDBLK
  5
E8
330
E6
100
AcDbEntity
  8
0
100
AcDbBlockEnd
  0
BLOCK
  5
122
330
121
100
AcDbEntity
  8
0
100
AcDbBlockBegin
  2
SW_NOTE_0
 70
     0
 10
0.0
 20
0.0
 30
0.0
  3
SW_NOTE_0
  1

  0
MTEXT
  5
124
330
121
100
AcDbEntity
  8
O-TEKST
 62
     0
100
AcDbMText
 10
16.0734375
 20
8.1855801476
 30
0.0
 40
6.35
 41
0.0
 46
0.0
 71
     2
 72
     1
  1
SCHNITT
  7
SLDTEXTSTYLE0
 73
     1
 44
1.0
  0
MTEXT
  5
125
330
121
100
AcDbEntity
  8
O-TEKST
 62
     0
100
AcDbMText
 10
38.5538176
 20
5.3469457771
 30
0.0
 40
3.5
 41
0.0
 46
0.0
 71
     2
 72
     1
  1
A-A
  7
SLDTEXTSTYLE0
 73
     1
 44
1.0
  0
ENDBLK
  5
123
330
121
100
AcDbEntity
  8
0
100
AcDbBlockEnd
  0
BLOCK
  5
150
330
14F
100
AcDbEntity
  8
0
100
AcDbBlockBegin
  2
SW_NOTE_1
 70
     0
 10
0.0
 20
0.0
 30
0.0
  3
SW_NOTE_1
  1

  0
MTEXT
  5
152
330
14F
100
AcDbEntity
  8
O-TEKST
 62
     0
100
AcDbMText
 10
16.0734375
 20
8.1855801476
 30
0.0
 40
6.35
 41
0.0
 46
0.0
 71
     2
 72
     1
  1
SCHNITT
  7
SLDTEXTSTYLE0
 73
     1
 44
1.0
  0
MTEXT
  5
153
330
14F
100
AcDbEntity
  8
O-TEKST
 62
     0
100
AcDbMText
 10
38.0069426
 20
5.3469457771
 30
0.0
 40
3.5
 41
0.0
 46
0.0
 71
     2
 72
     1
  1
B-B
  7
SLDTEXTSTYLE0
 73
     1
 44
1.0
  0
ENDBLK
  5
151
330
14F
100
AcDbEntity
  8
0
100
AcDbBlockEnd
  0
ENDSEC
  0
SECTION
  2
ENTITIES
  0
LINE
  5
97
330
1F
100
AcDbEntity
  8
0
  6
Continuous
 62
     7
370
    25
100
AcDbLine
 10
140.64907139
 20
99.8180801682
 30
0.0
 11
40.64907139
 21
99.8180801682
 31
0.0
  0
LINE
  5
98
330
1F
100
AcDbEntity
  8
0
  6
Continuous
 62
     7
370
    25
100
AcDbLine
 10
140.64907139
 20
99.8180801682
 30
0.0
 11
140.64907139
 21
93.8180801682
 31
0.0
  0
LINE
  5
99
330
1F
100
AcDbEntity
  8
0
  6
Continuous
 62
     7
370
    25
100
AcDbLine
 10
137.34907139
 20
93.3190020911
 30
0.0
 11
140.64907139
 21
93.8180801682
 31
0.0
  0
LINE
  5
9A
330
1F
100
AcDbEntity
  8
0
  6
Continuous
 62
     7
370
    25
100
AcDbLine
 10
137.34907139
 20
93.3190020911
 30
0.0
 11
137.34907139
 21
88.8180801682
 31
0.0
  0
LINE
  5
9B
330
1F
100
AcDbEntity
  8
0
  6
Continuous
 62
     7
370
    25
100
AcDbLine
 10
137.34907139
 20
88.8180801682
 30
0.0
 11
37.34907139
 21
88.8180801682
 31
0.0
  0
LINE
  5
9C
330
1F
100
AcDbEntity
  8
0
  6
Continuous
 62
     7
370
    25
100
AcDbLine
 10
37.34907139
 20
92.8180801682
 30
0.0
 11
37.34907139
 21
88.8180801682
 31
0.0
  0
LINE
  5
9D
330
1F
100
AcDbEntity
  8
0
  6
Continuous
 62
     7
370
    25
100
AcDbLine
 10
40.64907139
 20
93.3171582453
 30
0.0
 11
37.34907139
 21
92.8180801682
 31
0.0
  0
LINE
  5
9E
330
1F
100
AcDbEntity
  8
0
  6
Continuous
 62
     7
370
    25
100
AcDbLine
 10
40.64907139
 20
93.3171582453
 30
0.0
 11
40.64907139
 21
99.8180801682
 31
0.0
  0
LINE
  5
9F
330
1F
100
AcDbEntity
  8
0
  6
Continuous
 62
     7
370
    25
100
AcDbLine
 10
37.34907139
 20
53.2180801682
 30
0.0
 11
137.34907139
 21
53.2180801682
 31
0.0
  0
LINE
  5
A0
330
1F
100
AcDbEntity
  8
0
  6
Continuous
 62
     7
370
    25
100
AcDbLine
 10
140.64907139
 20
48.2180801682
 30
0.0
 11
137.34907139
 21
48.7171582453
 31
0.0
  0
LINE
  5
A1
330
1F
100
AcDbEntity
  8
0
  6
Continuous
 62
     7
370
    25
100
AcDbLine
 10
140.64907139
 20
48.2180801682
 30
0.0
 11
140.64907139
 21
42.2180801682
 31
0.0
  0
LINE
  5
A2
330
1F
100
AcDbEntity
  8
0
  6
Continuous
 62
     7
370
    25
100
AcDbLine
 10
140.64907139
 20
42.2180801682
 30
0.0
 11
40.64907139
 21
42.2180801682
 31
0.0
  0
LINE
  5
A3
330
1F
100
AcDbEntity
  8
0
  6
Continuous
 62
     7
370
    25
100
AcDbLine
 10
40.64907139
 20
42.2180801682
 30
0.0
 11
40.64907139
 21
48.7190020911
 31
0.0
  0
LINE
  5
A4
330
1F
100
AcDbEntity
  8
0
  6
Continuous
 62
     7
370
    25
100
AcDbLine
 10
37.34907139
 20
49.2180801682
 30
0.0
 11
40.64907139
 21
48.7190020911
 31
0.0
  0
LINE
  5
A5
330
1F
100
AcDbEntity
  8
0
  6
Continuous
 62
     7
370
    25
100
AcDbLine
 10
137.34907139
 20
53.2180801682
 30
0.0
 11
137.34907139
 21
48.7171582453
 31
0.0
  0
LINE
  5
A6
330
1F
100
AcDbEntity
  8
0
  6
Continuous
 62
     7
370
    25
100
AcDbLine
 10
37.34907139
 20
53.2180801682
 30
0.0
 11
37.34907139
 21
49.2180801682
 31
0.0
  0
LINE
  5
A7
330
1F
100
AcDbEntity
  8
0
  6
Continuous
 62
     7
370
    25
100
AcDbLine
 10
37.34907139
 20
57.2180801682
 30
0.0
 11
137.34907139
 21
57.2180801682
 31
0.0
  0
LINE
  5
A8
330
1F
100
AcDbEntity
  8
0
  6
Continuous
 62
     7
370
    25
100
AcDbLine
 10
137.34907139
 20
53.2180801682
 30
0.0
 11
137.34907139
 21
57.2180801682
 31
0.0
  0
LINE
  5
A9
330
1F
100
AcDbEntity
  8
0
  6
Continuous
 62
     7
370
    25
100
AcDbLine
 10
37.34907139
 20
57.2180801682
 30
0.0
 11
37.34907139
 21
53.2180801682
 31
0.0
  0
LINE
  5
AA
330
1F
100
AcDbEntity
  8
0
  6
Continuous
 62
     7
370
    25
100
AcDbLine
 10
137.34907139
 20
84.8180801682
 30
0.0
 11
37.34907139
 21
84.8180801682
 31
0.0
  0
LINE
  5
AB
330
1F
100
AcDbEntity
  8
0
  6
Continuous
 62
     7
370
    25
100
AcDbLine
 10
137.34907139
 20
84.8180801682
 30
0.0
 11
137.34907139
 21
88.8180801682
 31
0.0
  0
LINE
  5
AC
330
1F
100
AcDbEntity
  8
0
  6
Continuous
 62
     7
370
    25
100
AcDbLine
 10
37.34907139
 20
88.8180801682
 30
0.0
 11
37.34907139
 21
84.8180801682
 31
0.0
  0
SPLINE
  5
AD
330
1F
100
AcDbEntity
  8
0
  6
Continuous
 62
     7
370
    25
100
AcDbSpline
210
0.0
220
0.0
230
1.0
 70
    11
 71
     3
 72
    70
 73
    66
 74
     0
 42
0.000000001
 43
0.00000001
 40
0.0
 40
0.0
 40
0.0
 40
0.0
 40
0.03125
 40
0.03125
 40
0.0625
 40
0.0625
 40
0.09375
 40
0.09375
 40
0.125
 40
0.125
 40
0.15625
 40
0.15625
 40
0.1875
 40
0.1875
 40
0.21875
 40
0.21875
 40
0.25
 40
0.25
 40
0.28125
 40
0.28125
 40
0.3125
 40
0.3125
 40
0.34375
 40
0.34375
 40
0.375
 40
0.375
 40
0.40625
 40
0.40625
 40
0.4375
 40
0.4375
 40
0.46875
 40
0.46875
 40
0.5
 40
0.5
 40
0.53125
 40
0.53125
 40
0.5625
 40
0.5625
 40
0.59375
 40
0.59375
 40
0.625
 40
0.625
 40
0.65625
 40
0.65625
 40
0.6875
 40
0.6875
 40
0.71875
 40
0.71875
 40
0.75
 40
0.75
 40
0.78125
 40
0.78125
 40
0.8125
 40
0.8125
 40
0.84375
 40
0.84375
 40
0.875
 40
0.875
 40
0.90625
 40
0.90625
 40
0.9375
 40
0.9375
 40
0.96875
 40
0.96875
 40
1.0
 40
1.0
 40
1.0
 40
1.0
 10
63.99907139004148
 20
31.61808016822664
 30
0.0
 10
63.97264544013029
 20
31.61808016822665
 30
0.0
 10
63.94666108604982
 20
31.6206731709923
 30
0.0
 10
63.89553944987068
 20
31.63083309105269
 30
0.0
 10
63.87013749441554
 20
31.63852324290987
 30
0.0
 10
63.82169645170124
 20
31.6586006274375
 30
0.0
 10
63.79872147886736
 20
31.67088683549994
 30
0.0
 10
63.75524031271448
 20
31.69991401206466
 30
0.0
 10
63.73465333900681
 20
31.7168094841913
 30
0.0
 10
63.69775324325429
 20
31.75371620474293
 30
0.0
 10
63.68119525341626
 20
31.77385387257089
 30
0.0
 10
63.65195370075332
 20
31.81757821933644
 30
0.0
 10
63.63952716452323
 20
31.84086108502559
 30
0.0
 10
63.61957820044734
 20
31.88899270715544
 30
0.0
 10
63.61190102504981
 20
31.9141956912436
 30
0.0
 10
63.60162626698131
 20
31.96582837168821
 30
0.0
 10
63.59908529787192
 20
31.99178150269958
 30
0.0
 10
63.59905759498943
 20
32.04395404512305
 30
0.0
 10
63.60165297247594
 20
32.07044984704791
 30
0.0
 10
63.61185532943274
 20
32.12175130349001
 30
0.0
 10
63.61940422443964
 20
32.14668561876115
 30
0.0
 10
63.63942470644506
 20
32.19511344623226
 30
0.0
 10
63.65194839702571
 20
32.21854220863457
 30
0.0
 10
63.68089897139956
 20
32.26189508561333
 30
0.0
 10
63.69742558275814
 20
32.28210054688017
 30
0.0
 10
63.73474147451412
 20
32.31945476760966
 30
0.0
 10
63.75498690214193
 20
32.33604515002068
 30
0.0
 10
63.79830072054224
 20
32.36502411924653
 30
0.0
 10
63.82166794071494
 20
32.37754694710122
 30
0.0
 10
63.87014142247324
 20
32.39763966607945
 30
0.0
 10
63.89507476062597
 20
32.40520722952724
 30
0.0
 10
63.94631739712421
 20
32.41544609121489
 30
0.0
 10
63.97282607368967
 20
32.41807091596055
 30
0.0
 10
64.02503392053299
 20
32.4180893705128
 30
0.0
 10
64.05097714385788
 20
32.41556779305402
 30
0.0
 10
64.10253565615685
 20
32.40536012485668
 30
0.0
 10
64.12782974877499
 20
32.39768520603885
 30
0.0
 10
64.1759802435034
 20
32.3777772035813
 30
0.0
 10
64.1991935942886
 20
32.36542032657583
 30
0.0
 10
64.24302135039878
 20
32.33617213460812
 30
0.0
 10
64.26318111329019
 20
32.31961981301507
 30
0.0
 10
64.30009786513583
 20
32.282774642264
 30
0.0
 10
64.31700033451686
 20
32.2622233655851
 30
0.0
 10
64.34609722053408
 20
32.21872360201544
 30
0.0
 10
64.35839810618056
 20
32.19575962255146
 30
0.0
 10
64.37849527841365
 20
32.14739834310165
 30
0.0
 10
64.38622612488047
 20
32.1219594263432
 30
0.0
 10
64.39643454920531
 20
32.07082681470253
 30
0.0
 10
64.39904425627377
 20
32.04486329933223
 30
0.0
 10
64.39909810693597
 20
31.9921137359627
 30
0.0
 10
64.39652243413943
 20
31.96600823638018
 30
0.0
 10
64.38640942686331
 20
31.91489071250666
 30
0.0
 10
64.37876440150332
 20
31.8895400739227
 30
0.0
 10
64.35870484197439
 20
31.84101204843246
 30
0.0
 10
64.34643174919823
 20
31.81802304598611
 30
0.0
 10
64.31746970286628
 20
31.77455483964052
 30
0.0
 10
64.30059066876899
 20
31.75394370641873
 30
0.0
 10
64.26368927867168
 20
31.71698330853251
 30
0.0
 10
64.24357096192774
 20
31.70041756936671
 30
0.0
 10
64.19994301556547
 20
31.67117937920136
 30
0.0
 10
64.17660399013492
 20
31.65869045276369
 30
0.0
 10
64.12848475310271
 20
31.63869781078541
 30
0.0
 10
64.10340724712641
 20
31.63102649349196
 30
0.0
 10
64.05164927488552
 20
31.62067346946002
 30
0.0
 10
64.02549733995268
 20
31.61808016822662
 30
0.0
 10
63.99907139004148
 20
31.61808016822664
 30
0.0
  0
SPLINE
  5
AE
330
1F
100
AcDbEntity
  8
0
  6
Continuous
 62
     7
370
    25
100
AcDbSpline
210
0.0
220
0.0
230
1.0
 70
    11
 71
     3
 72
    70
 73
    66
 74
     0
 42
0.000000001
 43
0.00000001
 40
0.0
 40
0.0
 40
0.0
 40
0.0
 40
0.03125
 40
0.03125
 40
0.0625
 40
0.0625
 40
0.09375
 40
0.09375
 40
0.125
 40
0.125
 40
0.15625
 40
0.15625
 40
0.1875
 40
0.1875
 40
0.21875
 40
0.21875
 40
0.25
 40
0.25
 40
0.28125
 40
0.28125
 40
0.3125
 40
0.3125
 40
0.34375
 40
0.34375
 40
0.375
 40
0.375
 40
0.40625
 40
0.40625
 40
0.4375
 40
0.4375
 40
0.46875
 40
0.46875
 40
0.5
 40
0.5
 40
0.53125
 40
0.53125
 40
0.5625
 40
0.5625
 40
0.59375
 40
0.59375
 40
0.625
 40
0.625
 40
0.65625
 40
0.65625
 40
0.6875
 40
0.6875
 40
0.71875
 40
0.71875
 40
0.75
 40
0.75
 40
0.78125
 40
0.78125
 40
0.8125
 40
0.8125
 40
0.84375
 40
0.84375
 40
0.875
 40
0.875
 40
0.90625
 40
0.90625
 40
0.9375
 40
0.9375
 40
0.96875
 40
0.96875
 40
1.0
 40
1.0
 40
1.0
 40
1.0
 10
113.9990713900415
 20
31.61808016822663
 30
0.0
 10
113.9726454401303
 20
31.61808016822665
 30
0.0
 10
113.9466610860499
 20
31.62067317099228
 30
0.0
 10
113.8955394498707
 20
31.63083309105268
 30
0.0
 10
113.8701374944155
 20
31.63852324290989
 30
0.0
 10
113.8216964517012
 20
31.65860062743749
 30
0.0
 10
113.7987214788674
 20
31.67088683549994
 30
0.0
 10
113.7552403127146
 20
31.69991401206461
 30
0.0
 10
113.734653339007
 20
31.71680948419116
 30
0.0
 10
113.6977532432545
 20
31.75371620474266
 30
0.0
 10
113.6811952534165
 20
31.77385387257051
 30
0.0
 10
113.6519537007536
 20
31.81757821933584
 30
0.0
 10
113.6395271645236
 20
31.84086108502493
 30
0.0
 10
113.6195782004477
 20
31.88899270715452
 30
0.0
 10
113.6119010250501
 20
31.9141956912426
 30
0.0
 10
113.6016262669814
 20
31.96582837168703
 30
0.0
 10
113.599085297872
 20
31.99178150269829
 30
0.0
 10
113.5990575949894
 20
32.04395404512178
 30
0.0
 10
113.6016529724758
 20
32.07044984704671
 30
0.0
 10
113.6118553294325
 20
32.12175130348897
 30
0.0
 10
113.6194042244393
 20
32.14668561876022
 30
0.0
 10
113.6394247064447
 20
32.19511344623155
 30
0.0
 10
113.6519483970254
 20
32.21854220863398
 30
0.0
 10
113.6808989713993
 20
32.26189508561298
 30
0.0
 10
113.6974255827579
 20
32.28210054687991
 30
0.0
 10
113.734741474514
 20
32.31945476760954
 30
0.0
 10
113.7549869021418
 20
32.33604515002057
 30
0.0
 10
113.7983007205422
 20
32.36502411924649
 30
0.0
 10
113.8216679407149
 20
32.37754694710121
 30
0.0
 10
113.8701414224733
 20
32.39763966607943
 30
0.0
 10
113.895074760626
 20
32.4052072295272
 30
0.0
 10
113.9463173971242
 20
32.41544609121486
 30
0.0
 10
113.9728260736897
 20
32.41807091596055
 30
0.0
 10
114.025033920533
 20
32.4180893705128
 30
0.0
 10
114.0509771438579
 20
32.415567793054
 30
0.0
 10
114.1025356561569
 20
32.40536012485665
 30
0.0
 10
114.127829748775
 20
32.39768520603878
 30
0.0
 10
114.1759802435035
 20
32.3777772035812
 30
0.0
 10
114.1991935942887
 20
32.36542032657574
 30
0.0
 10
114.2430213503989
 20
32.336172134608
 30
0.0
 10
114.2631811132903
 20
32.31961981301495
 30
0.0
 10
114.3000978651361
 20
32.28277464226374
 30
0.0
 10
114.3170003345171
 20
32.26222336558474
 30
0.0
 10
114.3460972205344
 20
32.21872360201486
 30
0.0
 10
114.3583981061809
 20
32.19575962255076
 30
0.0
 10
114.378495278414
 20
32.14739834310072
 30
0.0
 10
114.3862261248808
 20
32.12195942634216
 30
0.0
 10
114.3964345492055
 20
32.07082681470131
 30
0.0
 10
114.3990442562739
 20
32.04486329933093
 30
0.0
 10
114.3990981069359
 20
31.99211373596136
 30
0.0
 10
114.3965224341393
 20
31.96600823637893
 30
0.0
 10
114.386409426863
 20
31.91489071250555
 30
0.0
 10
114.3787644015029
 20
31.8895400739217
 30
0.0
 10
114.358704841974
 20
31.84101204843174
 30
0.0
 10
114.3464317491979
 20
31.81802304598554
 30
0.0
 10
114.317469702866
 20
31.77455483964012
 30
0.0
 10
114.3005906687687
 20
31.75394370641846
 30
0.0
 10
114.2636892786715
 20
31.71698330853242
 30
0.0
 10
114.2435709619276
 20
31.70041756936667
 30
0.0
 10
114.1999430155654
 20
31.67117937920137
 30
0.0
 10
114.1766039901349
 20
31.65869045276372
 30
0.0
 10
114.1284847531027
 20
31.63869781078543
 30
0.0
 10
114.1034072471264
 20
31.63102649349193
 30
0.0
 10
114.0516492748855
 20
31.62067346945997
 30
0.0
 10
114.0254973399527
 20
31.61808016822662
 30
0.0
 10
113.9990713900415
 20
31.61808016822663
 30
0.0
  0
SPLINE
  5
AF
330
1F
100
AcDbEntity
  8
0
  6
Continuous
 62
     7
370
    25
100
AcDbSpline
210
0.0
220
0.0
230
1.0
 70
    11
 71
     3
 72
    70
 73
    66
 74
     0
 42
0.000000001
 43
0.00000001
 40
0.0
 40
0.0
 40
0.0
 40
0.0
 40
0.03125
 40
0.03125
 40
0.0625
 40
0.0625
 40
0.09375
 40
0.09375
 40
0.125
 40
0.125
 40
0.15625
 40
0.15625
 40
0.1875
 40
0.1875
 40
0.21875
 40
0.21875
 40
0.25
 40
0.25
 40
0.28125
 40
0.28125
 40
0.3125
 40
0.3125
 40
0.34375
 40
0.34375
 40
0.375
 40
0.375
 40
0.40625
 40
0.40625
 40
0.4375
 40
0.4375
 40
0.46875
 40
0.46875
 40
0.5
 40
0.5
 40
0.53125
 40
0.53125
 40
0.5625
 40
0.5625
 40
0.59375
 40
0.59375
 40
0.625
 40
0.625
 40
0.65625
 40
0.65625
 40
0.6875
 40
0.6875
 40
0.71875
 40
0.71875
 40
0.75
 40
0.75
 40
0.78125
 40
0.78125
 40
0.8125
 40
0.8125
 40
0.84375
 40
0.84375
 40
0.875
 40
0.875
 40
0.90625
 40
0.90625
 40
0.9375
 40
0.9375
 40
0.96875
 40
0.96875
 40
1.0
 40
1.0
 40
1.0
 40
1.0
 10
113.9990713900415
 20
109.6180801682267
 30
0.0
 10
114.0254974844898
 20
109.6180801682267
 30
0.0
 10
114.0514819165448
 20
109.6206731986625
 30
0.0
 10
114.102603596498
 20
109.6308331605264
 30
0.0
 10
114.1280055139116
 20
109.6385233262881
 30
0.0
 10
114.1764463923663
 20
109.6586006651798
 30
0.0
 10
114.1994212498725
 20
109.6708868183922
 30
0.0
 10
114.2429021552704
 20
109.6999137865465
 30
0.0
 10
114.2634889696849
 20
109.7168090901916
 30
0.0
 10
114.3003888208242
 20
109.7537154111364
 30
0.0
 10
114.316946716873
 20
109.7738528466411
 30
0.0
 10
114.3461881506973
 20
109.8175766458413
 30
0.0
 10
114.3586146934133
 20
109.8408592492419
 30
0.0
 10
114.3785637500683
 20
109.8889903165472
 30
0.0
 10
114.3862410051896
 20
109.9141929364482
 30
0.0
 10
114.396516089884
 20
109.9658252317361
 30
0.0
 10
114.3990572522723
 20
109.9917781799829
 30
0.0
 10
114.3990854112864
 20
110.0439503707319
 30
0.0
 10
114.3964903073847
 20
110.0704460480263
 30
0.0
 10
114.3862884472594
 20
110.1217475779027
 30
0.0
 10
114.3787397994725
 20
110.1466819384338
 30
0.0
 10
114.3587198226373
 20
110.195109887064
 30
0.0
 10
114.3461962632995
 20
110.2185389736187
 30
0.0
 10
114.3172458979768
 20
110.2618923762756
 30
0.0
 10
114.3007193706989
 20
110.2820980738143
 30
0.0
 10
114.2634036342435
 20
110.3194527339667
 30
0.0
 10
114.2431579053194
 20
110.3360436133677
 30
0.0
 10
114.1998438546161
 20
110.3650230984834
 30
0.0
 10
114.176476569769
 20
110.3775461164404
 30
0.0
 10
114.1280025776993
 20
110.3976392737273
 30
0.0
 10
114.1030690244792
 20
110.4052069717732
 30
0.0
 10
114.0518260543736
 20
110.415446013996
 30
0.0
 10
114.0253171964923
 20
110.4180708944616
 30
0.0
 10
113.9731090230084
 20
110.4180893917807
 30
0.0
 10
113.9471656925923
 20
110.4155678037911
 30
0.0
 10
113.8956070799387
 20
110.4053601165706
 30
0.0
 10
113.8703129421027
 20
110.3976851749584
 30
0.0
 10
113.8221624736315
 20
110.3777771717534
 30
0.0
 10
113.7989491896575
 20
110.3654203205941
 30
0.0
 10
113.7551216056585
 20
110.3361722606035
 30
0.0
 10
113.7349619461642
 20
110.3196200414767
 30
0.0
 10
113.6980454096253
 20
110.28277518635
 30
0.0
 10
113.6811430563728
 20
110.2622241352487
 30
0.0
 10
113.6520463047985
 20
110.2187248596458
 30
0.0
 10
113.639745453457
 20
110.1957611573555
 30
0.0
 10
113.6196482566805
 20
110.1474005010083
 30
0.0
 10
113.6119173219419
 20
110.1219618569136
 30
0.0
 10
113.601708633321
 20
110.070829739428
 30
0.0
 10
113.599098750211
 20
110.0448664606474
 30
0.0
 10
113.5990444536841
 20
109.9921173435898
 30
0.0
 10
113.6016198914047
 20
109.9660117362695
 30
0.0
 10
113.6117324173031
 20
109.9148942410219
 30
0.0
 10
113.6193771524553
 20
109.8895436647555
 30
0.0
 10
113.6394363871688
 20
109.8410151759512
 30
0.0
 10
113.6517093433567
 20
109.8180259645457
 30
0.0
 10
113.6806711316415
 20
109.7745573739377
 30
0.0
 10
113.697550124819
 20
109.7539459483204
 30
0.0
 10
113.734451630824
 20
109.7169849299074
 30
0.0
 10
113.754570015586
 20
109.7004189431743
 30
0.0
 10
113.7981980821115
 20
109.671180340937
 30
0.0
 10
113.8215374241414
 20
109.6586911084409
 30
0.0
 10
113.8696570830352
 20
109.6386981147713
 30
0.0
 10
113.8947346647678
 20
109.631026708975
 30
0.0
 10
113.9464931544717
 20
109.6206734977946
 30
0.0
 10
113.9726452955931
 20
109.6180801682267
 30
0.0
 10
113.9990713900415
 20
109.6180801682267
 30
0.0
  0
SPLINE
  5
B0
330
1F
100
AcDbEntity
  8
0
  6
Continuous
 62
     7
370
    25
100
AcDbSpline
210
0.0
220
0.0
230
1.0
 70
    11
 71
     3
 72
    70
 73
    66
 74
     0
 42
0.000000001
 43
0.00000001
 40
0.0
 40
0.0
 40
0.0
 40
0.0
 40
0.0312500000000033
 40
0.0312500000000033
 40
0.0625000000000067
 40
0.0625000000000067
 40
0.09375000000001
 40
0.09375000000001
 40
0.1250000000000133
 40
0.1250000000000133
 40
0.1562500000000167
 40
0.1562500000000167
 40
0.18750000000002
 40
0.18750000000002
 40
0.2187500000000233
 40
0.2187500000000233
 40
0.2500000000000266
 40
0.2500000000000266
 40
0.28125000000003
 40
0.28125000000003
 40
0.3125000000000333
 40
0.3125000000000333
 40
0.3437500000000366
 40
0.3437500000000366
 40
0.37500000000004
 40
0.37500000000004
 40
0.4062500000000433
 40
0.4062500000000433
 40
0.4375000000000466
 40
0.4375000000000466
 40
0.46875000000005
 40
0.46875000000005
 40
0.5000000000000533
 40
0.5000000000000533
 40
0.53125000000005
 40
0.53125000000005
 40
0.5625000000000466
 40
0.5625000000000466
 40
0.5937500000000433
 40
0.5937500000000433
 40
0.62500000000004
 40
0.62500000000004
 40
0.6562500000000366
 40
0.6562500000000366
 40
0.6875000000000333
 40
0.6875000000000333
 40
0.71875000000003
 40
0.71875000000003
 40
0.7500000000000266
 40
0.7500000000000266
 40
0.7812500000000233
 40
0.7812500000000233
 40
0.81250000000002
 40
0.81250000000002
 40
0.8437500000000167
 40
0.8437500000000167
 40
0.8750000000000133
 40
0.8750000000000133
 40
0.90625000000001
 40
0.90625000000001
 40
0.9375000000000067
 40
0.9375000000000067
 40
0.9687500000000033
 40
0.9687500000000033
 40
1.0
 40
1.0
 40
1.0
 40
1.0
 10
63.99907139004149
 20
109.6180801682267
 30
0.0
 10
64.02549748448985
 20
109.6180801682267
 30
0.0
 10
64.05148191654482
 20
109.6206731986625
 30
0.0
 10
64.10260359649799
 20
109.6308331605264
 30
0.0
 10
64.12800551391163
 20
109.638523326288
 30
0.0
 10
64.17644639236627
 20
109.6586006651797
 30
0.0
 10
64.19942124987251
 20
109.6708868183922
 30
0.0
 10
64.24290215527036
 20
109.6999137865464
 30
0.0
 10
64.26348896968489
 20
109.7168090901916
 30
0.0
 10
64.30038882082414
 20
109.7537154111364
 30
0.0
 10
64.316946716873
 20
109.7738528466411
 30
0.0
 10
64.34618815069729
 20
109.8175766458412
 30
0.0
 10
64.35861469341326
 20
109.8408592492419
 30
0.0
 10
64.37856375006824
 20
109.8889903165472
 30
0.0
 10
64.38624100518958
 20
109.9141929364482
 30
0.0
 10
64.396516089884
 20
109.9658252317361
 30
0.0
 10
64.3990572522723
 20
109.9917781799829
 30
0.0
 10
64.39908541128631
 20
110.0439503707319
 30
0.0
 10
64.39649030738467
 20
110.0704460480263
 30
0.0
 10
64.38628844725939
 20
110.1217475779027
 30
0.0
 10
64.37873979947247
 20
110.1466819384338
 30
0.0
 10
64.35871982263731
 20
110.195109887064
 30
0.0
 10
64.34619626329946
 20
110.2185389736187
 30
0.0
 10
64.31724589797683
 20
110.2618923762756
 30
0.0
 10
64.30071937069894
 20
110.2820980738143
 30
0.0
 10
64.26340363424352
 20
110.3194527339667
 30
0.0
 10
64.2431579053194
 20
110.3360436133677
 30
0.0
 10
64.19984385461609
 20
110.3650230984834
 30
0.0
 10
64.17647656976894
 20
110.3775461164403
 30
0.0
 10
64.12800257769925
 20
110.3976392737273
 30
0.0
 10
64.10306902447915
 20
110.4052069717732
 30
0.0
 10
64.05182605437356
 20
110.415446013996
 30
0.0
 10
64.02531719649231
 20
110.4180708944616
 30
0.0
 10
63.97310902300843
 20
110.4180893917806
 30
0.0
 10
63.94716569259222
 20
110.4155678037912
 30
0.0
 10
63.89560707993869
 20
110.4053601165706
 30
0.0
 10
63.8703129421027
 20
110.3976851749585
 30
0.0
 10
63.82216247363151
 20
110.3777771717534
 30
0.0
 10
63.79894918965753
 20
110.3654203205941
 30
0.0
 10
63.75512160565857
 20
110.3361722606034
 30
0.0
 10
63.73496194616416
 20
110.3196200414768
 30
0.0
 10
63.69804540962526
 20
110.28277518635
 30
0.0
 10
63.6811430563728
 20
110.2622241352487
 30
0.0
 10
63.65204630479851
 20
110.2187248596458
 30
0.0
 10
63.63974545345697
 20
110.1957611573556
 30
0.0
 10
63.61964825668057
 20
110.1474005010083
 30
0.0
 10
63.61191732194191
 20
110.1219618569136
 30
0.0
 10
63.60170863332093
 20
110.0708297394281
 30
0.0
 10
63.59909875021096
 20
110.0448664606474
 30
0.0
 10
63.59904445368404
 20
109.9921173435898
 30
0.0
 10
63.60161989140468
 20
109.9660117362695
 30
0.0
 10
63.61173241730312
 20
109.914894241022
 30
0.0
 10
63.61937715245536
 20
109.8895436647555
 30
0.0
 10
63.63943638716884
 20
109.8410151759512
 30
0.0
 10
63.65170934335669
 20
109.8180259645456
 30
0.0
 10
63.6806711316415
 20
109.7745573739377
 30
0.0
 10
63.69755012481904
 20
109.7539459483203
 30
0.0
 10
63.73445163082395
 20
109.7169849299074
 30
0.0
 10
63.75457001558607
 20
109.7004189431743
 30
0.0
 10
63.79819808211148
 20
109.671180340937
 30
0.0
 10
63.82153742414139
 20
109.6586911084408
 30
0.0
 10
63.86965708303516
 20
109.6386981147713
 30
0.0
 10
63.8947346647678
 20
109.631026708975
 30
0.0
 10
63.94649315447169
 20
109.6206734977946
 30
0.0
 10
63.97264529559313
 20
109.6180801682267
 30
0.0
 10
63.99907139004149
 20
109.6180801682267
 30
0.0
  0
LINE
  5
B1
330
1F
100
AcDbEntity
  8
0
  6
Continuous
 62
     7
370
    25
100
AcDbLine
 10
140.64907139
 20
26.0180801682
 30
0.0
 11
40.64907139
 21
26.0180801682
 31
0.0
  0
CIRCLE
  5
B2
330
1F
100
AcDbEntity
  8
0
  6
Continuous
 62
     7
370
    25
100
AcDbCircle
 10
113.99907139
 20
32.0180801682
 30
0.0
 40
2.0
  0
CIRCLE
  5
B3
330
1F
100
AcDbEntity
  8
0
  6
Continuous
 62
     7
370
    25
100
AcDbCircle
 10
63.99907139
 20
32.0180801682
 30
0.0
 40
2.0
  0
LINE
  5
B4
330
1F
100
AcDbEntity
  8
0
  6
Continuous
 62
     7
370
    25
100
AcDbLine
 10
40.64907139
 20
26.0180801682
 30
0.0
 11
40.64907139
 21
42.2180801682
 31
0.0
  0
LINE
  5
B5
330
1F
100
AcDbEntity
  8
0
  6
Continuous
 62
     7
370
    25
100
AcDbLine
 10
140.64907139
 20
42.2180801682
 30
0.0
 11
140.64907139
 21
26.0180801682
 31
0.0
  0
LINE
  5
B6
330
1F
100
AcDbEntity
  8
0
  6
Continuous
 62
     7
370
    25
100
AcDbLine
 10
140.64907139
 20
116.0180801682
 30
0.0
 11
40.64907139
 21
116.0180801682
 31
0.0
  0
CIRCLE
  5
B7
330
1F
100
AcDbEntity
  8
0
  6
Continuous
 62
     7
370
    25
100
AcDbCircle
 10
63.99907139
 20
110.0180801682
 30
0.0
 40
2.0
  0
CIRCLE
  5
B8
330
1F
100
AcDbEntity
  8
0
  6
Continuous
 62
     7
370
    25
100
AcDbCircle
 10
113.99907139
 20
110.0180801682
 30
0.0
 40
2.0
  0
LINE
  5
B9
330
1F
100
AcDbEntity
  8
0
  6
Continuous
 62
     7
370
    25
100
AcDbLine
 10
40.64907139
 20
99.8180801682
 30
0.0
 11
40.64907139
 21
116.0180801682
 31
0.0
  0
LINE
  5
BA
330
1F
100
AcDbEntity
  8
0
  6
Continuous
 62
     7
370
    25
100
AcDbLine
 10
140.64907139
 20
116.0180801682
 30
0.0
 11
140.64907139
 21
99.8180801682
 31
0.0
  0
LINE
  5
BB
330
1F
100
AcDbEntity
  8
0
  6
Continuous
 62
     7
370
    25
100
AcDbLine
 10
40.64907139
 20
109.5171582453
 30
0.0
 11
37.34907139
 21
109.0180801682
 31
0.0
  0
LINE
  5
BC
330
1F
100
AcDbEntity
  8
0
  6
Continuous
 62
     7
370
    25
100
AcDbLine
 10
37.34907139
 20
109.0180801682
 30
0.0
 11
37.34907139
 21
92.8180801682
 31
0.0
  0
LINE
  5
BD
330
1F
100
AcDbEntity
  8
0
  6
Continuous
 62
     7
370
    25
100
AcDbLine
 10
40.64907139
 20
32.5190020911
 30
0.0
 11
37.34907139
 21
33.0180801682
 31
0.0
  0
LINE
  5
BE
330
1F
100
AcDbEntity
  8
0
  6
Continuous
 62
     7
370
    25
100
AcDbLine
 10
37.34907139
 20
49.2180801682
 30
0.0
 11
37.34907139
 21
33.0180801682
 31
0.0
  0
LINE
  5
BF
330
1F
100
AcDbEntity
  8
0
  6
Continuous
 62
     7
370
    25
100
AcDbLine
 10
137.34907139
 20
57.2180801682
 30
0.0
 11
137.34907139
 21
84.8180801682
 31
0.0
  0
LINE
  5
C0
330
1F
100
AcDbEntity
  8
0
  6
Continuous
 62
     7
370
    25
100
AcDbLine
 10
37.34907139
 20
57.2180801682
 30
0.0
 11
37.34907139
 21
84.8180801682
 31
0.0
  0
LINE
  5
C1
330
1F
100
AcDbEntity
  8
0
  6
Continuous
 62
     7
370
    25
100
AcDbLine
 10
140.64907139
 20
48.2180801682
 30
0.0
 11
140.64907139
 21
93.8180801682
 31
0.0
  0
INSERT
  5
CD
330
1F
100
AcDbEntity
  8
O-TEKST
100
AcDbBlockReference
  2
SW_CENTERMARKSYMBOL_0
 10
63.99907139
 20
110.0180801682
 30
0.0
  0
INSERT
  5
D9
330
1F
100
AcDbEntity
  8
O-TEKST
100
AcDbBlockReference
  2
SW_CENTERMARKSYMBOL_1
 10
113.99907139
 20
110.0180801682
 30
0.0
  0
INSERT
  5
E5
330
1F
100
AcDbEntity
  8
O-TEKST
100
AcDbBlockReference
  2
SW_CENTERMARKSYMBOL_2
 10
63.99907139
 20
32.0180801682
 30
0.0
  0
INSERT
  5
F1
330
1F
100
AcDbEntity
  8
O-TEKST
100
AcDbBlockReference
  2
SW_CENTERMARKSYMBOL_3
 10
113.99907139
 20
32.0180801682
 30
0.0
  0
LINE
  5
F2
330
1F
100
AcDbEntity
  8
0
  6
PHANTOM
 62
     7
370
    35
100
AcDbLine
 10
153.04507139
 20
71.0180801682
 30
0.0
 11
24.95307139
 21
71.0180801682
 31
0.0
  0
LINE
  5
F3
330
1F
100
AcDbEntity
  8
0
  6
Continuous
 62
     7
370
    35
100
AcDbLine
 10
151.04507139
 20
59.0180801682
 30
0.0
 11
151.04507139
 21
71.0180801682
 31
0.0
  0
SOLID
  5
F4
330
1F
100
AcDbEntity
  8
0
  6
Continuous
 62
     7
370
    35
100
AcDbTrace
 10
151.04507139
 20
71.0180801682
 30
0.0
 11
149.54507139
 21
65.0180801682
 31
0.0
 12
152.54507139
 22
65.0180801682
 32
0.0
 13
152.54507139
 23
65.0180801682
 33
0.0
  0
LINE
  5
F5
330
1F
100
AcDbEntity
  8
0
  6
Continuous
 62
     7
370
    35
100
AcDbLine
 10
26.95307139
 20
59.0180801682
 30
0.0
 11
26.95307139
 21
71.0180801682
 31
0.0
  0
SOLID
  5
F6
330
1F
100
AcDbEntity
  8
0
  6
Continuous
 62
     7
370
    35
100
AcDbTrace
 10
26.95307139
 20
71.0180801682
 30
0.0
 11
25.45307139
 21
65.0180801682
 31
0.0
 12
28.45307139
 22
65.0180801682
 32
0.0
 13
28.45307139
 23
65.0180801682
 33
0.0
  0
MTEXT
  5
F8
330
1F
100
AcDbEntity
  8
0
  6
Continuous
 62
     7
100
AcDbMText
 10
153.549560938
 20
69.1015014091
 30
0.0
 40
6.35
 41
0.0
 46
0.0
 71
     1
 72
     1
  1
A
  7
SLDTEXTSTYLE0
 73
     1
 44
1.0
  0
MTEXT
  5
F9
330
1F
100
AcDbEntity
  8
0
  6
Continuous
 62
     7
100
AcDbMText
 10
18.187357972
 20
69.1015014091
 30
0.0
 40
6.35
 41
0.0
 46
0.0
 71
     1
 72
     1
  1
A
  7
SLDTEXTSTYLE0
 73
     1
 44
1.0
  0
LINE
  5
FA
330
1F
100
AcDbEntity
  8
0
  6
PHANTOM
 62
     7
370
    35
100
AcDbLine
 10
90.64907139
 20
126.8180801682
 30
0.0
 11
90.64907139
 21
15.2180801682
 31
0.0
  0
LINE
  5
FB
330
1F
100
AcDbEntity
  8
0
  6
Continuous
 62
     7
370
    35
100
AcDbLine
 10
78.64907139
 20
124.8180801682
 30
0.0
 11
90.64907139
 21
124.8180801682
 31
0.0
  0
SOLID
  5
FC
330
1F
100
AcDbEntity
  8
0
  6
Continuous
 62
     7
370
    35
100
AcDbTrace
 10
90.64907139
 20
124.8180801682
 30
0.0
 11
84.64907139
 21
126.3180801682
 31
0.0
 12
84.64907139
 22
123.3180801682
 32
0.0
 13
84.64907139
 23
123.3180801682
 33
0.0
  0
LINE
  5
FD
330
1F
100
AcDbEntity
  8
0
  6
Continuous
 62
     7
370
    35
100
AcDbLine
 10
78.64907139
 20
17.2180801682
 30
0.0
 11
90.64907139
 21
17.2180801682
 31
0.0
  0
SOLID
  5
FE
330
1F
100
AcDbEntity
  8
0
  6
Continuous
 62
     7
370
    35
100
AcDbTrace
 10
90.64907139
 20
17.2180801682
 30
0.0
 11
84.64907139
 21
18.7180801682
 31
0.0
 12
84.64907139
 22
15.7180801682
 32
0.0
 13
84.64907139
 23
15.7180801682
 33
0.0
  0
MTEXT
  5
FF
330
1F
100
AcDbEntity
  8
0
  6
Continuous
 62
     7
100
AcDbMText
 10
78.64907139
 20
134.9015014091
 30
0.0
 40
6.35
 41
0.0
 46
0.0
 71
     1
 72
     1
  1
B
  7
SLDTEXTSTYLE0
 73
     1
 44
1.0
  0
MTEXT
  5
100
330
1F
100
AcDbEntity
  8
0
  6
Continuous
 62
     7
100
AcDbMText
 10
78.64907139
 20
13.860300895
 30
0.0
 40
6.35
 41
0.0
 46
0.0
 71
     1
 72
     1
  1
B
  7
SLDTEXTSTYLE0
 73
     1
 44
1.0
  0
LINE
  5
101
330
1F
100
AcDbEntity
  8
0
  6
Continuous
 62
     7
370
    25
100
AcDbLine
 10
40.64907139
 20
247.6854459269
 30
0.0
 11
140.64907139
 21
247.6854459269
 31
0.0
  0
LINE
  5
102
330
1F
100
AcDbEntity
  8
0
  6
Continuous
 62
     7
370
    25
100
AcDbLine
 10
40.64907139
 20
247.6854459269
 30
0.0
 11
40.64907139
 21
254.1863678498
 31
0.0
  0
LINE
  5
103
330
1F
100
AcDbEntity
  8
0
  6
Continuous
 62
     7
370
    25
100
AcDbLine
 10
37.34907139
 20
254.6854459269
 30
0.0
 11
40.64907139
 21
254.1863678498
 31
0.0
  0
LINE
  5
104
330
1F
100
AcDbEntity
  8
0
  6
Continuous
 62
     7
370
    25
100
AcDbLine
 10
37.34907139
 20
254.6854459269
 30
0.0
 11
37.34907139
 21
262.6854459269
 31
0.0
  0
LINE
  5
105
330
1F
100
AcDbEntity
  8
0
  6
Continuous
 62
     7
370
    25
100
AcDbLine
 10
37.34907139
 20
262.6854459269
 30
0.0
 11
137.34907139
 21
262.6854459269
 31
0.0
  0
LINE
  5
106
330
1F
100
AcDbEntity
  8
0
  6
Continuous
 62
     7
370
    25
100
AcDbLine
 10
137.34907139
 20
262.6854459269
 30
0.0
 11
137.34907139
 21
254.184524004
 31
0.0
  0
LINE
  5
107
330
1F
100
AcDbEntity
  8
0
  6
Continuous
 62
     7
370
    25
100
AcDbLine
 10
140.64907139
 20
247.6854459269
 30
0.0
 11
140.64907139
 21
253.6854459269
 31
0.0
  0
LINE
  5
108
330
1F
100
AcDbEntity
  8
0
  6
Continuous
 62
     7
370
    25
100
AcDbLine
 10
140.64907139
 20
253.6854459269
 30
0.0
 11
137.34907139
 21
254.184524004
 31
0.0
  0
LINE
  5
109
330
1F
100
AcDbEntity
  8
0
  6
Continuous
 62
     7
370
    25
100
AcDbLine
 10
137.34907139
 20
302.6854459269
 30
0.0
 11
37.34907139
 21
302.6854459269
 31
0.0
  0
LINE
  5
10A
330
1F
100
AcDbEntity
  8
0
  6
Continuous
 62
     7
370
    25
100
AcDbLine
 10
37.34907139
 20
323.6854459269
 30
0.0
 11
137.34907139
 21
323.6854459269
 31
0.0
  0
LINE
  5
10B
330
1F
100
AcDbEntity
  8
0
  6
Continuous
 62
     7
370
    25
100
AcDbLine
 10
137.34907139
 20
302.6854459269
 30
0.0
 11
137.34907139
 21
323.6854459269
 31
0.0
  0
LINE
  5
10C
330
1F
100
AcDbEntity
  8
0
  6
Continuous
 62
     7
370
    25
100
AcDbLine
 10
37.34907139
 20
302.6854459269
 30
0.0
 11
37.34907139
 21
323.6854459269
 31
0.0
  0
LINE
  5
10D
330
1F
100
AcDbEntity
  8
0
  6
Continuous
 62
     7
370
    25
100
AcDbLine
 10
37.34907139
 20
325.6854459269
 30
0.0
 11
137.34907139
 21
325.6854459269
 31
0.0
  0
LINE
  5
10E
330
1F
100
AcDbEntity
  8
0
  6
Continuous
 62
     7
370
    25
100
AcDbLine
 10
137.34907139
 20
323.6854459269
 30
0.0
 11
137.34907139
 21
325.6854459269
 31
0.0
  0
LINE
  5
10F
330
1F
100
AcDbEntity
  8
0
  6
Continuous
 62
     7
370
    25
100
AcDbLine
 10
37.34907139
 20
325.6854459269
 30
0.0
 11
37.34907139
 21
323.6854459269
 31
0.0
  0
LINE
  5
110
330
1F
100
AcDbEntity
  8
0
  6
Continuous
 62
     7
370
    25
100
AcDbLine
 10
37.34907139
 20
327.6854459269
 30
0.0
 11
137.34907139
 21
327.6854459269
 31
0.0
  0
LINE
  5
111
330
1F
100
AcDbEntity
  8
0
  6
Continuous
 62
     7
370
    25
100
AcDbLine
 10
137.34907139
 20
367.1854459269
 30
0.0
 11
37.34907139
 21
367.1854459269
 31
0.0
  0
LINE
  5
112
330
1F
100
AcDbEntity
  8
0
  6
Continuous
 62
     7
370
    25
100
AcDbLine
 10
137.34907139
 20
327.6854459269
 30
0.0
 11
137.34907139
 21
367.1854459269
 31
0.0
  0
LINE
  5
113
330
1F
100
AcDbEntity
  8
0
  6
Continuous
 62
     7
370
    25
100
AcDbLine
 10
37.34907139
 20
327.6854459269
 30
0.0
 11
37.34907139
 21
367.1854459269
 31
0.0
  0
LINE
  5
114
330
1F
100
AcDbEntity
  8
0
  6
Continuous
 62
     7
370
    25
100
AcDbLine
 10
137.34907139
 20
325.6854459269
 30
0.0
 11
137.34907139
 21
327.6854459269
 31
0.0
  0
LINE
  5
115
330
1F
100
AcDbEntity
  8
0
  6
Continuous
 62
     7
370
    25
100
AcDbLine
 10
37.34907139
 20
327.6854459269
 30
0.0
 11
37.34907139
 21
325.6854459269
 31
0.0
  0
LINE
  5
116
330
1F
100
AcDbEntity
  8
0
  6
Continuous
 62
     7
370
    25
100
AcDbLine
 10
137.34907139
 20
371.6854459269
 30
0.0
 11
37.34907139
 21
371.6854459269
 31
0.0
  0
LINE
  5
117
330
1F
100
AcDbEntity
  8
0
  6
Continuous
 62
     7
370
    25
100
AcDbLine
 10
137.34907139
 20
371.6854459269
 30
0.0
 11
137.34907139
 21
367.1854459269
 31
0.0
  0
LINE
  5
118
330
1F
100
AcDbEntity
  8
0
  6
Continuous
 62
     7
370
    25
100
AcDbLine
 10
37.34907139
 20
367.1854459269
 30
0.0
 11
37.34907139
 21
371.6854459269
 31
0.0
  0
LINE
  5
119
330
1F
100
AcDbEntity
  8
0
  6
Continuous
 62
     7
370
    25
100
AcDbLine
 10
137.34907139
 20
311.1863678498
 30
0.0
 11
140.64907139
 21
311.6854459269
 31
0.0
  0
LINE
  5
11A
330
1F
100
AcDbEntity
  8
0
  6
Continuous
 62
     7
370
    25
100
AcDbLine
 10
137.34907139
 20
371.6854459269
 30
0.0
 11
140.64907139
 21
371.6854459269
 31
0.0
  0
LINE
  5
11B
330
1F
100
AcDbEntity
  8
0
  6
Continuous
 62
     7
370
    25
100
AcDbLine
 10
140.64907139
 20
311.6854459269
 30
0.0
 11
140.64907139
 21
371.6854459269
 31
0.0
  0
CIRCLE
  5
11C
330
1F
100
AcDbEntity
  8
0
  6
Continuous
 62
     7
370
    25
100
AcDbCircle
 10
88.99907139
 20
269.4354459269
 30
0.0
 40
3.25
  0
LINE
  5
11D
330
1F
100
AcDbEntity
  8
0
  6
Continuous
 62
     7
370
    25
100
AcDbLine
 10
137.34907139
 20
262.6854459269
 30
0.0
 11
137.34907139
 21
302.6854459269
 31
0.0
  0
LINE
  5
11E
330
1F
100
AcDbEntity
  8
0
  6
Continuous
 62
     7
370
    25
100
AcDbLine
 10
37.34907139
 20
262.6854459269
 30
0.0
 11
37.34907139
 21
302.6854459269
 31
0.0
  0
LINE
  5
11F
330
1F
100
AcDbEntity
  8
0
  6
Continuous
 62
     7
370
    25
100
AcDbLine
 10
140.64907139
 20
253.6854459269
 30
0.0
 11
140.64907139
 21
311.6854459269
 31
0.0
  0
HATCH
  5
120
330
1F
100
AcDbEntity
  8
O-TEKST
  6
Continuous
370
    18
100
AcDbHatch
 10
0.0
 20
0.0
 30
0.0
210
0.0
220
0.0
230
1.0
  2
ANSI34
 70
     0
 71
     0
 91
        1
 92
        0
 93
        8
 72
     1
 10
140.6490713900415
 20
247.6854459269239
 11
140.6490713900415
 21
253.6854459269239
 72
     1
 10
140.6490713900415
 20
253.6854459269239
 11
137.3490713900415
 21
254.1845240040147
 72
     1
 10
137.3490713900415
 20
254.1845240040147
 11
137.3490713900415
 21
262.6854459269239
 72
     1
 10
137.3490713900415
 20
262.6854459269239
 11
37.34907139004147
 21
262.6854459269239
 72
     1
 10
37.34907139004148
 20
262.6854459269239
 11
37.34907139004148
 21
254.6854459269239
 72
     1
 10
37.34907139004148
 20
254.6854459269239
 11
40.64907139004148
 21
254.1863678498331
 72
     1
 10
40.64907139004148
 20
254.1863678498331
 11
40.64907139004148
 21
247.6854459269239
 72
     1
 10
40.64907139004148
 20
247.6854459269239
 11
140.6490713900415
 21
247.6854459269239
 97
        0
 75
     0
 76
     1
 52
0.0
 41
1.0
 77
     0
 78
     4
 53
45.0
 43
0.0
 44
0.0
 45
-13.47038418160373
 46
13.47038418160373
 79
     0
 53
45.0
 43
4.49013
 44
0.0
 45
-13.47038418160373
 46
13.47038418160373
 79
     0
 53
45.0
 43
8.98026
 44
0.0
 45
-13.47038418160373
 46
13.47038418160373
 79
     0
 53
45.0
 43
13.4704
 44
0.0
 45
-13.47038418160373
 46
13.47038418160373
 79
     0
 98
        1
 10
0.0
 20
0.0
  0
INSERT
  5
126
330
1F
100
AcDbEntity
  8
O-TEKST
100
AcDbBlockReference
  2
SW_NOTE_0
 10
67.4641777283
 20
223.8995428933
 30
0.0
  0
LINE
  5
127
330
1F
100
AcDbEntity
  8
0
  6
Continuous
 62
     7
370
    25
100
AcDbLine
 10
393.9652340431
 20
53.2180801682
 30
0.0
 11
393.9652340431
 21
57.2180801682
 31
0.0
  0
LINE
  5
128
330
1F
100
AcDbEntity
  8
0
  6
Continuous
 62
     7
370
    25
100
AcDbLine
 10
393.9652340431
 20
53.2180801682
 30
0.0
 11
398.4652340431
 21
53.2180801682
 31
0.0
  0
LINE
  5
129
330
1F
100
AcDbEntity
  8
0
  6
Continuous
 62
     7
370
    25
100
AcDbLine
 10
398.4652340431
 20
53.2180801682
 30
0.0
 11
398.4652340431
 21
42.2180801682
 31
0.0
  0
LINE
  5
12A
330
1F
100
AcDbEntity
  8
0
  6
Continuous
 62
     7
370
    25
100
AcDbLine
 10
398.4652340431
 20
42.2180801682
 30
0.0
 11
354.4652340431
 21
42.2180801682
 31
0.0
  0
LINE
  5
12B
330
1F
100
AcDbEntity
  8
0
  6
Continuous
 62
     7
370
    25
100
AcDbLine
 10
352.4652340431
 20
44.2180801682
 30
0.0
 11
354.4652340431
 21
42.2180801682
 31
0.0
  0
LINE
  5
12C
330
1F
100
AcDbEntity
  8
0
  6
Continuous
 62
     7
370
    25
100
AcDbLine
 10
350.4652340431
 20
42.2180801682
 30
0.0
 11
352.4652340431
 21
44.2180801682
 31
0.0
  0
LINE
  5
12D
330
1F
100
AcDbEntity
  8
0
  6
Continuous
 62
     7
370
    25
100
AcDbLine
 10
350.4652340431
 20
42.2180801682
 30
0.0
 11
344.4652340431
 21
42.2180801682
 31
0.0
  0
LINE
  5
12E
330
1F
100
AcDbEntity
  8
0
  6
Continuous
 62
     7
370
    25
100
AcDbLine
 10
344.4652340431
 20
42.2180801682
 30
0.0
 11
344.4652340431
 21
26.0180801682
 31
0.0
  0
LINE
  5
12F
330
1F
100
AcDbEntity
  8
0
  6
Continuous
 62
     7
370
    25
100
AcDbLine
 10
344.4652340431
 20
26.0180801682
 30
0.0
 11
274.4652340431
 21
26.0180801682
 31
0.0
  0
LINE
  5
130
330
1F
100
AcDbEntity
  8
0
  6
Continuous
 62
     7
370
    25
100
AcDbLine
 10
274.4652340431
 20
26.0180801682
 30
0.0
 11
274.4652340431
 21
116.0180801682
 31
0.0
  0
LINE
  5
131
330
1F
100
AcDbEntity
  8
0
  6
Continuous
 62
     7
370
    25
100
AcDbLine
 10
274.4652340431
 20
116.0180801682
 30
0.0
 11
293.4152340431
 21
116.0180801682
 31
0.0
  0
LINE
  5
132
330
1F
100
AcDbEntity
  8
0
  6
Continuous
 62
     7
370
    25
100
AcDbLine
 10
293.4152340431
 20
116.0180801682
 30
0.0
 11
293.4152340431
 21
101.0180801682
 31
0.0
  0
LINE
  5
133
330
1F
100
AcDbEntity
  8
0
  6
Continuous
 62
     7
370
    25
100
AcDbLine
 10
289.4652340431
 20
101.0180801682
 30
0.0
 11
293.4152340431
 21
101.0180801682
 31
0.0
  0
LINE
  5
134
330
1F
100
AcDbEntity
  8
0
  6
Continuous
 62
     7
370
    25
100
AcDbLine
 10
289.4652340431
 20
41.0180801682
 30
0.0
 11
289.4652340431
 21
101.0180801682
 31
0.0
  0
LINE
  5
135
330
1F
100
AcDbEntity
  8
0
  6
Continuous
 62
     7
370
    25
100
AcDbLine
 10
329.4652340431
 20
41.0180801682
 30
0.0
 11
289.4652340431
 21
41.0180801682
 31
0.0
  0
LINE
  5
136
330
1F
100
AcDbEntity
  8
0
  6
Continuous
 62
     7
370
    25
100
AcDbLine
 10
329.4652340431
 20
57.2180801682
 30
0.0
 11
329.4652340431
 21
41.0180801682
 31
0.0
  0
LINE
  5
137
330
1F
100
AcDbEntity
  8
0
  6
Continuous
 62
     7
370
    25
100
AcDbLine
 10
350.4652340431
 20
57.2180801682
 30
0.0
 11
329.4652340431
 21
57.2180801682
 31
0.0
  0
LINE
  5
138
330
1F
100
AcDbEntity
  8
0
  6
Continuous
 62
     7
370
    25
100
AcDbLine
 10
352.4652340431
 20
55.2180801682
 30
0.0
 11
350.4652340431
 21
57.2180801682
 31
0.0
  0
LINE
  5
139
330
1F
100
AcDbEntity
  8
0
  6
Continuous
 62
     7
370
    25
100
AcDbLine
 10
354.4652340431
 20
57.2180801682
 30
0.0
 11
352.4652340431
 21
55.2180801682
 31
0.0
  0
LINE
  5
13A
330
1F
100
AcDbEntity
  8
0
  6
Continuous
 62
     7
370
    25
100
AcDbLine
 10
393.9652340431
 20
57.2180801682
 30
0.0
 11
354.4652340431
 21
57.2180801682
 31
0.0
  0
LINE
  5
13B
330
1F
100
AcDbEntity
  8
0
  6
Continuous
 62
     7
370
    25
100
AcDbLine
 10
299.0152340431
 20
101.0180801682
 30
0.0
 11
299.0152340431
 21
116.0180801682
 31
0.0
  0
LINE
  5
13C
330
1F
100
AcDbEntity
  8
0
  6
Continuous
 62
     7
370
    25
100
AcDbLine
 10
299.0152340431
 20
101.0180801682
 30
0.0
 11
293.4152340431
 21
101.0180801682
 31
0.0
  0
LINE
  5
13D
330
1F
100
AcDbEntity
  8
0
  6
Continuous
 62
     7
370
    25
100
AcDbLine
 10
299.0152340431
 20
116.0180801682
 30
0.0
 11
293.4152340431
 21
116.0180801682
 31
0.0
  0
LINE
  5
13E
330
1F
100
AcDbEntity
  8
0
  6
Continuous
 62
     7
370
    25
100
AcDbLine
 10
354.4652340431
 20
84.8180801682
 30
0.0
 11
352.4652340431
 21
86.8180801682
 31
0.0
  0
LINE
  5
13F
330
1F
100
AcDbEntity
  8
0
  6
Continuous
 62
     7
370
    25
100
AcDbLine
 10
352.4652340431
 20
86.8180801682
 30
0.0
 11
350.4652340431
 21
84.8180801682
 31
0.0
  0
LINE
  5
140
330
1F
100
AcDbEntity
  8
0
  6
Continuous
 62
     7
370
    25
100
AcDbLine
 10
329.4652340431
 20
84.8180801682
 30
0.0
 11
350.4652340431
 21
84.8180801682
 31
0.0
  0
LINE
  5
141
330
1F
100
AcDbEntity
  8
0
  6
Continuous
 62
     7
370
    25
100
AcDbLine
 10
329.4652340431
 20
101.0180801682
 30
0.0
 11
329.4652340431
 21
84.8180801682
 31
0.0
  0
LINE
  5
142
330
1F
100
AcDbEntity
  8
0
  6
Continuous
 62
     7
370
    25
100
AcDbLine
 10
344.4652340431
 20
116.0180801682
 30
0.0
 11
344.4652340431
 21
99.8180801682
 31
0.0
  0
LINE
  5
143
330
1F
100
AcDbEntity
  8
0
  6
Continuous
 62
     7
370
    25
100
AcDbLine
 10
344.4652340431
 20
99.8180801682
 30
0.0
 11
350.4652340431
 21
99.8180801682
 31
0.0
  0
LINE
  5
144
330
1F
100
AcDbEntity
  8
0
  6
Continuous
 62
     7
370
    25
100
AcDbLine
 10
350.4652340431
 20
99.8180801682
 30
0.0
 11
352.4652340431
 21
97.8180801682
 31
0.0
  0
LINE
  5
145
330
1F
100
AcDbEntity
  8
0
  6
Continuous
 62
     7
370
    25
100
AcDbLine
 10
352.4652340431
 20
97.8180801682
 30
0.0
 11
354.4652340431
 21
99.8180801682
 31
0.0
  0
LINE
  5
146
330
1F
100
AcDbEntity
  8
0
  6
Continuous
 62
     7
370
    25
100
AcDbLine
 10
354.4652340431
 20
99.8180801682
 30
0.0
 11
398.4652340431
 21
99.8180801682
 31
0.0
  0
LINE
  5
147
330
1F
100
AcDbEntity
  8
0
  6
Continuous
 62
     7
370
    25
100
AcDbLine
 10
398.4652340431
 20
99.8180801682
 30
0.0
 11
398.4652340431
 21
88.8180801682
 31
0.0
  0
LINE
  5
148
330
1F
100
AcDbEntity
  8
0
  6
Continuous
 62
     7
370
    25
100
AcDbLine
 10
398.4652340431
 20
88.8180801682
 30
0.0
 11
393.9652340431
 21
88.8180801682
 31
0.0
  0
LINE
  5
149
330
1F
100
AcDbEntity
  8
0
  6
Continuous
 62
     7
370
    25
100
AcDbLine
 10
393.9652340431
 20
84.8180801682
 30
0.0
 11
393.9652340431
 21
88.8180801682
 31
0.0
  0
LINE
  5
14A
330
1F
100
AcDbEntity
  8
0
  6
Continuous
 62
     7
370
    25
100
AcDbLine
 10
354.4652340431
 20
84.8180801682
 30
0.0
 11
393.9652340431
 21
84.8180801682
 31
0.0
  0
LINE
  5
14B
330
1F
100
AcDbEntity
  8
0
  6
Continuous
 62
     7
370
    25
100
AcDbLine
 10
299.0152340431
 20
101.0180801682
 30
0.0
 11
329.4652340431
 21
101.0180801682
 31
0.0
  0
LINE
  5
14C
330
1F
100
AcDbEntity
  8
0
  6
Continuous
 62
     7
370
    25
100
AcDbLine
 10
299.0152340431
 20
116.0180801682
 30
0.0
 11
344.4652340431
 21
116.0180801682
 31
0.0
  0
HATCH
  5
14D
330
1F
100
AcDbEntity
  8
O-TEKST
  6
Continuous
370
    18
100
AcDbHatch
 10
0.0
 20
0.0
 30
0.0
210
0.0
220
0.0
230
1.0
  2
ANSI34
 70
     0
 71
     0
 91
        1
 92
        0
 93
       20
 72
     1
 10
393.9652340430687
 20
57.21808016822668
 11
354.4652340430687
 21
57.21808016822668
 72
     1
 10
354.4652340430687
 20
57.21808016822668
 11
352.4652340430687
 21
55.21808016822666
 72
     1
 10
352.4652340430687
 20
55.21808016822666
 11
350.4652340430687
 21
57.21808016822668
 72
     1
 10
350.4652340430687
 20
57.21808016822668
 11
329.4652340430687
 21
57.21808016822668
 72
     1
 10
329.4652340430687
 20
57.21808016822668
 11
329.4652340430687
 21
41.01808016822667
 72
     1
 10
329.4652340430687
 20
41.01808016822667
 11
289.4652340430687
 21
41.01808016822668
 72
     1
 10
289.4652340430687
 20
41.01808016822668
 11
289.4652340430687
 21
101.0180801682267
 72
     1
 10
289.4652340430687
 20
101.0180801682267
 11
293.4152340430687
 21
101.0180801682267
 72
     1
 10
293.4152340430687
 20
101.0180801682267
 11
293.4152340430687
 21
116.0180801682267
 72
     1
 10
293.4152340430687
 20
116.0180801682267
 11
274.4652340430687
 21
116.0180801682267
 72
     1
 10
274.4652340430687
 20
116.0180801682267
 11
274.4652340430687
 21
26.0180801682267
 72
     1
 10
274.4652340430687
 20
26.0180801682267
 11
344.4652340430687
 21
26.01808016822667
 72
     1
 10
344.4652340430687
 20
26.01808016822667
 11
344.4652340430687
 21
42.21808016822668
 72
     1
 10
344.4652340430687
 20
42.21808016822668
 11
350.4652340430687
 21
42.21808016822668
 72
     1
 10
350.4652340430687
 20
42.21808016822668
 11
352.4652340430687
 21
44.21808016822666
 72
     1
 10
352.4652340430687
 20
44.21808016822666
 11
354.4652340430687
 21
42.21808016822667
 72
     1
 10
354.4652340430687
 20
42.21808016822667
 11
398.4652340430686
 21
42.21808016822668
 72
     1
 10
398.4652340430686
 20
42.21808016822668
 11
398.4652340430686
 21
53.21808016822668
 72
     1
 10
398.4652340430686
 20
53.21808016822668
 11
393.9652340430687
 21
53.21808016822668
 72
     1
 10
393.9652340430687
 20
53.21808016822668
 11
393.9652340430687
 21
57.21808016822668
 97
        0
 75
     0
 76
     1
 52
0.0
 41
1.0
 77
     0
 78
     4
 53
45.0
 43
0.0
 44
0.0
 45
-13.47038418160373
 46
13.47038418160373
 79
     0
 53
45.0
 43
4.49013
 44
0.0
 45
-13.47038418160373
 46
13.47038418160373
 79
     0
 53
45.0
 43
8.98026
 44
0.0
 45
-13.47038418160373
 46
13.47038418160373
 79
     0
 53
45.0
 43
13.4704
 44
0.0
 45
-13.47038418160373
 46
13.47038418160373
 79
     0
 98
        1
 10
0.0
 20
0.0
  0
HATCH
  5
14E
330
1F
100
AcDbEntity
  8
O-TEKST
  6
Continuous
370
    18
100
AcDbHatch
 10
0.0
 20
0.0
 30
0.0
210
0.0
220
0.0
230
1.0
  2
ANSI34
 70
     0
 71
     0
 91
        1
 92
        0
 93
       16
 72
     1
 10
354.4652340430687
 20
84.8180801682267
 11
393.9652340430687
 21
84.8180801682267
 72
     1
 10
393.9652340430687
 20
84.8180801682267
 11
393.9652340430687
 21
88.81808016822667
 72
     1
 10
393.9652340430687
 20
88.81808016822667
 11
398.4652340430686
 21
88.81808016822667
 72
     1
 10
398.4652340430686
 20
88.81808016822667
 11
398.4652340430686
 21
99.81808016822669
 72
     1
 10
398.4652340430686
 20
99.81808016822669
 11
354.4652340430687
 21
99.81808016822669
 72
     1
 10
354.4652340430687
 20
99.81808016822669
 11
352.4652340430687
 21
97.8180801682267
 72
     1
 10
352.4652340430687
 20
97.8180801682267
 11
350.4652340430687
 21
99.8180801682267
 72
     1
 10
350.4652340430687
 20
99.8180801682267
 11
344.4652340430687
 21
99.8180801682267
 72
     1
 10
344.4652340430687
 20
99.8180801682267
 11
344.4652340430687
 21
116.0180801682267
 72
     1
 10
344.4652340430687
 20
116.0180801682267
 11
299.0152340430687
 21
116.0180801682267
 72
     1
 10
299.0152340430687
 20
116.0180801682267
 11
299.0152340430687
 21
101.0180801682267
 72
     1
 10
299.0152340430687
 20
101.0180801682267
 11
329.4652340430687
 21
101.0180801682267
 72
     1
 10
329.4652340430687
 20
101.0180801682267
 11
329.4652340430687
 21
84.8180801682267
 72
     1
 10
329.4652340430687
 20
84.8180801682267
 11
350.4652340430687
 21
84.8180801682267
 72
     1
 10
350.4652340430687
 20
84.8180801682267
 11
352.4652340430687
 21
86.8180801682267
 72
     1
 10
352.4652340430687
 20
86.8180801682267
 11
354.4652340430687
 21
84.8180801682267
 97
        0
 75
     0
 76
     1
 52
0.0
 41
1.0
 77
     0
 78
     4
 53
45.0
 43
0.0
 44
0.0
 45
-13.47038418160373
 46
13.47038418160373
 79
     0
 53
45.0
 43
4.49013
 44
0.0
 45
-13.47038418160373
 46
13.47038418160373
 79
     0
 53
45.0
 43
8.98026
 44
0.0
 45
-13.47038418160373
 46
13.47038418160373
 79
     0
 53
45.0
 43
13.4704
 44
0.0
 45
-13.47038418160373
 46
13.47038418160373
 79
     0
 98
        1
 10
0.0
 20
0.0
  0
INSERT
  5
154
330
1F
100
AcDbEntity
  8
O-TEKST
100
AcDbBlockReference
  2
SW_NOTE_1
 10
315.7032561619
 20
5.6321771346
 30
0.0
  0
LINE
  5
155
330
1F
100
AcDbEntity
  8
0
  6
Continuous
 62
     7
370
    25
100
AcDbLine
 10
579.8398184358
 20
57.2180801682
 30
0.0
 11
540.3398184358
 21
57.2180801682
 31
0.0
  0
LINE
  5
156
330
1F
100
AcDbEntity
  8
0
  6
Continuous
 62
     7
370
    25
100
AcDbLine
 10
579.8398184358
 20
57.2180801682
 30
0.0
 11
579.8398184358
 21
53.2180801682
 31
0.0
  0
LINE
  5
157
330
1F
100
AcDbEntity
  8
0
  6
Continuous
 62
     7
370
    25
100
AcDbLine
 10
579.8398184358
 20
53.2180801682
 30
0.0
 11
584.3398184358
 21
53.2180801682
 31
0.0
  0
LINE
  5
158
330
1F
100
AcDbEntity
  8
0
  6
Continuous
 62
     7
370
    25
100
AcDbLine
 10
584.3398184358
 20
53.2180801682
 30
0.0
 11
584.3398184358
 21
49.2180801682
 31
0.0
  0
LINE
  5
159
330
1F
100
AcDbEntity
  8
0
  6
Continuous
 62
     7
370
    25
100
AcDbLine
 10
584.3398184358
 20
49.2180801682
 30
0.0
 11
523.3398184358
 21
49.2180801682
 31
0.0
  0
LINE
  5
15A
330
1F
100
AcDbEntity
  8
0
  6
Continuous
 62
     7
370
    25
100
AcDbLine
 10
523.3398184358
 20
49.2180801682
 30
0.0
 11
523.3398184358
 21
33.0180801682
 31
0.0
  0
LINE
  5
15B
330
1F
100
AcDbEntity
  8
0
  6
Continuous
 62
     7
370
    25
100
AcDbLine
 10
523.3398184358
 20
33.0180801682
 30
0.0
 11
467.3398184358
 21
33.0180801682
 31
0.0
  0
LINE
  5
15C
330
1F
100
AcDbEntity
  8
0
  6
Continuous
 62
     7
370
    25
100
AcDbLine
 10
467.3398184358
 20
33.0180801682
 30
0.0
 11
467.3398184358
 21
109.0180801682
 31
0.0
  0
LINE
  5
15D
330
1F
100
AcDbEntity
  8
0
  6
Continuous
 62
     7
370
    25
100
AcDbLine
 10
467.3398184358
 20
109.0180801682
 30
0.0
 11
523.3398184358
 21
109.0180801682
 31
0.0
  0
LINE
  5
15E
330
1F
100
AcDbEntity
  8
0
  6
Continuous
 62
     7
370
    25
100
AcDbLine
 10
523.3398184358
 20
109.0180801682
 30
0.0
 11
523.3398184358
 21
92.8180801682
 31
0.0
  0
LINE
  5
15F
330
1F
100
AcDbEntity
  8
0
  6
Continuous
 62
     7
370
    25
100
AcDbLine
 10
523.3398184358
 20
92.8180801682
 30
0.0
 11
584.3398184358
 21
92.8180801682
 31
0.0
  0
LINE
  5
160
330
1F
100
AcDbEntity
  8
0
  6
Continuous
 62
     7
370
    25
100
AcDbLine
 10
584.3398184358
 20
92.8180801682
 30
0.0
 11
584.3398184358
 21
88.8180801682
 31
0.0
  0
LINE
  5
161
330
1F
100
AcDbEntity
  8
0
  6
Continuous
 62
     7
370
    25
100
AcDbLine
 10
579.8398184358
 20
88.8180801682
 30
0.0
 11
584.3398184358
 21
88.8180801682
 31
0.0
  0
LINE
  5
162
330
1F
100
AcDbEntity
  8
0
  6
Continuous
 62
     7
370
    25
100
AcDbLine
 10
579.8398184358
 20
88.8180801682
 30
0.0
 11
579.8398184358
 21
84.8180801682
 31
0.0
  0
LINE
  5
163
330
1F
100
AcDbEntity
  8
0
  6
Continuous
 62
     7
370
    25
100
AcDbLine
 10
540.3398184358
 20
84.8180801682
 30
0.0
 11
579.8398184358
 21
84.8180801682
 31
0.0
  0
LINE
  5
164
330
1F
100
AcDbEntity
  8
0
  6
Continuous
 62
     7
370
    25
100
AcDbLine
 10
540.3398184358
 20
84.8180801682
 30
0.0
 11
538.3398184358
 21
86.8180801682
 31
0.0
  0
LINE
  5
165
330
1F
100
AcDbEntity
  8
0
  6
Continuous
 62
     7
370
    25
100
AcDbLine
 10
538.3398184358
 20
86.8180801682
 30
0.0
 11
536.3398184358
 21
84.8180801682
 31
0.0
  0
LINE
  5
166
330
1F
100
AcDbEntity
  8
0
  6
Continuous
 62
     7
370
    25
100
AcDbLine
 10
515.3398184358
 20
84.8180801682
 30
0.0
 11
536.3398184358
 21
84.8180801682
 31
0.0
  0
LINE
  5
167
330
1F
100
AcDbEntity
  8
0
  6
Continuous
 62
     7
370
    25
100
AcDbLine
 10
515.3398184358
 20
101.0180801682
 30
0.0
 11
515.3398184358
 21
84.8180801682
 31
0.0
  0
LINE
  5
168
330
1F
100
AcDbEntity
  8
0
  6
Continuous
 62
     7
370
    25
100
AcDbLine
 10
475.3398184358
 20
101.0180801682
 30
0.0
 11
515.3398184358
 21
101.0180801682
 31
0.0
  0
LINE
  5
169
330
1F
100
AcDbEntity
  8
0
  6
Continuous
 62
     7
370
    25
100
AcDbLine
 10
475.3398184358
 20
41.0180801682
 30
0.0
 11
475.3398184358
 21
101.0180801682
 31
0.0
  0
LINE
  5
16A
330
1F
100
AcDbEntity
  8
0
  6
Continuous
 62
     7
370
    25
100
AcDbLine
 10
515.3398184358
 20
41.0180801682
 30
0.0
 11
475.3398184358
 21
41.0180801682
 31
0.0
  0
LINE
  5
16B
330
1F
100
AcDbEntity
  8
0
  6
Continuous
 62
     7
370
    25
100
AcDbLine
 10
515.3398184358
 20
57.2180801682
 30
0.0
 11
515.3398184358
 21
41.0180801682
 31
0.0
  0
LINE
  5
16C
330
1F
100
AcDbEntity
  8
0
  6
Continuous
 62
     7
370
    25
100
AcDbLine
 10
536.3398184358
 20
57.2180801682
 30
0.0
 11
515.3398184358
 21
57.2180801682
 31
0.0
  0
LINE
  5
16D
330
1F
100
AcDbEntity
  8
0
  6
Continuous
 62
     7
370
    25
100
AcDbLine
 10
538.3398184358
 20
55.2180801682
 30
0.0
 11
536.3398184358
 21
57.2180801682
 31
0.0
  0
LINE
  5
16E
330
1F
100
AcDbEntity
  8
0
  6
Continuous
 62
     7
370
    25
100
AcDbLine
 10
540.3398184358
 20
57.2180801682
 30
0.0
 11
538.3398184358
 21
55.2180801682
 31
0.0
  0
LINE
  5
16F
330
1F
100
AcDbEntity
  8
0
  6
Continuous
 62
     7
370
    25
100
AcDbLine
 10
466.8407403587
 20
109.5171582453
 30
0.0
 11
467.3398184358
 21
109.0180801682
 31
0.0
  0
LINE
  5
170
330
1F
100
AcDbEntity
  8
0
  6
Continuous
 62
     7
370
    25
100
AcDbLine
 10
466.8407403587
 20
109.5171582453
 30
0.0
 11
523.8388965129
 21
109.5171582453
 31
0.0
  0
LINE
  5
171
330
1F
100
AcDbEntity
  8
0
  6
Continuous
 62
     7
370
    25
100
AcDbLine
 10
523.8388965129
 20
109.5171582453
 30
0.0
 11
523.3398184358
 21
109.0180801682
 31
0.0
  0
LINE
  5
172
330
1F
100
AcDbEntity
  8
0
  6
Continuous
 62
     7
370
    25
100
AcDbLine
 10
466.8407403587
 20
32.5190020911
 30
0.0
 11
467.3398184358
 21
33.0180801682
 31
0.0
  0
LINE
  5
173
330
1F
100
AcDbEntity
  8
0
  6
Continuous
 62
     7
370
    25
100
AcDbLine
 10
466.8407403587
 20
32.5190020911
 30
0.0
 11
466.8407403587
 21
109.5171582453
 31
0.0
  0
LINE
  5
174
330
1F
100
AcDbEntity
  8
0
  6
Continuous
 62
     7
370
    25
100
AcDbLine
 10
523.8388965129
 20
32.5190020911
 30
0.0
 11
523.3398184358
 21
33.0180801682
 31
0.0
  0
LINE
  5
175
330
1F
100
AcDbEntity
  8
0
  6
Continuous
 62
     7
370
    25
100
AcDbLine
 10
523.8388965129
 20
32.5190020911
 30
0.0
 11
466.8407403587
 21
32.5190020911
 31
0.0
  0
LINE
  5
176
330
1F
100
AcDbEntity
  8
0
  6
Continuous
 62
     7
370
    25
100
AcDbLine
 10
523.8388965129
 20
109.5171582453
 30
0.0
 11
523.8388965129
 21
93.3171582453
 31
0.0
  0
LINE
  5
177
330
1F
100
AcDbEntity
  8
0
  6
Continuous
 62
     7
370
    25
100
AcDbLine
 10
523.8388965129
 20
93.3171582453
 30
0.0
 11
523.3398184358
 21
92.8180801682
 31
0.0
  0
LINE
  5
178
330
1F
100
AcDbEntity
  8
0
  6
Continuous
 62
     7
370
    25
100
AcDbLine
 10
584.3398184358
 20
93.3171582453
 30
0.0
 11
584.3398184358
 21
92.8180801682
 31
0.0
  0
LINE
  5
179
330
1F
100
AcDbEntity
  8
0
  6
Continuous
 62
     7
370
    25
100
AcDbLine
 10
523.8388965129
 20
93.3171582453
 30
0.0
 11
584.3398184358
 21
93.3171582453
 31
0.0
  0
LINE
  5
17A
330
1F
100
AcDbEntity
  8
0
  6
Continuous
 62
     7
370
    25
100
AcDbLine
 10
584.3398184358
 20
49.2180801682
 30
0.0
 11
584.3398184358
 21
48.7190020911
 31
0.0
  0
LINE
  5
17B
330
1F
100
AcDbEntity
  8
0
  6
Continuous
 62
     7
370
    25
100
AcDbLine
 10
584.3398184358
 20
48.7190020911
 30
0.0
 11
523.8388965129
 21
48.7190020911
 31
0.0
  0
LINE
  5
17C
330
1F
100
AcDbEntity
  8
0
  6
Continuous
 62
     7
370
    25
100
AcDbLine
 10
523.8388965129
 20
48.7190020911
 30
0.0
 11
523.3398184358
 21
49.2180801682
 31
0.0
  0
LINE
  5
17D
330
1F
100
AcDbEntity
  8
0
  6
Continuous
 62
     7
370
    25
100
AcDbLine
 10
523.8388965129
 20
48.7190020911
 30
0.0
 11
523.8388965129
 21
32.5190020911
 31
0.0
  0
LINE
  5
17E
330
1F
100
AcDbEntity
  8
0
  6
Continuous
 62
     7
370
    25
100
AcDbLine
 10
530.3398184358
 20
42.2180801682
 30
0.0
 11
536.3398184358
 21
42.2180801682
 31
0.0
  0
LINE
  5
17F
330
1F
100
AcDbEntity
  8
0
  6
Continuous
 62
     7
370
    25
100
AcDbLine
 10
530.3398184358
 20
26.0180801682
 30
0.0
 11
530.3398184358
 21
42.2180801682
 31
0.0
  0
LINE
  5
180
330
1F
100
AcDbEntity
  8
0
  6
Continuous
 62
     7
370
    25
100
AcDbLine
 10
460.3398184358
 20
26.0180801682
 30
0.0
 11
530.3398184358
 21
26.0180801682
 31
0.0
  0
LINE
  5
181
330
1F
100
AcDbEntity
  8
0
  6
Continuous
 62
     7
370
    25
100
AcDbLine
 10
530.3398184358
 20
99.8180801682
 30
0.0
 11
530.3398184358
 21
116.0180801682
 31
0.0
  0
LINE
  5
182
330
1F
100
AcDbEntity
  8
0
  6
Continuous
 62
     7
370
    25
100
AcDbLine
 10
536.3398184358
 20
99.8180801682
 30
0.0
 11
530.3398184358
 21
99.8180801682
 31
0.0
  0
LINE
  5
183
330
1F
100
AcDbEntity
  8
0
  6
Continuous
 62
     7
370
    25
100
AcDbLine
 10
536.3398184358
 20
99.8180801682
 30
0.0
 11
538.3398184358
 21
97.8180801682
 31
0.0
  0
LINE
  5
184
330
1F
100
AcDbEntity
  8
0
  6
Continuous
 62
     7
370
    25
100
AcDbLine
 10
538.3398184358
 20
97.8180801682
 30
0.0
 11
540.3398184358
 21
99.8180801682
 31
0.0
  0
LINE
  5
185
330
1F
100
AcDbEntity
  8
0
  6
Continuous
 62
     7
370
    25
100
AcDbLine
 10
584.3398184358
 20
99.8180801682
 30
0.0
 11
540.3398184358
 21
99.8180801682
 31
0.0
  0
LINE
  5
186
330
1F
100
AcDbEntity
  8
0
  6
Continuous
 62
     7
370
    25
100
AcDbLine
 10
540.3398184358
 20
42.2180801682
 30
0.0
 11
584.3398184358
 21
42.2180801682
 31
0.0
  0
LINE
  5
187
330
1F
100
AcDbEntity
  8
0
  6
Continuous
 62
     7
370
    25
100
AcDbLine
 10
538.3398184358
 20
44.2180801682
 30
0.0
 11
540.3398184358
 21
42.2180801682
 31
0.0
  0
LINE
  5
188
330
1F
100
AcDbEntity
  8
0
  6
Continuous
 62
     7
370
    25
100
AcDbLine
 10
536.3398184358
 20
42.2180801682
 30
0.0
 11
538.3398184358
 21
44.2180801682
 31
0.0
  0
LINE
  5
189
330
1F
100
AcDbEntity
  8
0
  6
Continuous
 62
     7
370
    25
100
AcDbLine
 10
530.3398184358
 20
116.0180801682
 30
0.0
 11
460.3398184358
 21
116.0180801682
 31
0.0
  0
LINE
  5
18A
330
1F
100
AcDbEntity
  8
0
  6
Continuous
 62
     7
370
    25
100
AcDbLine
 10
460.3398184358
 20
116.0180801682
 30
0.0
 11
460.3398184358
 21
26.0180801682
 31
0.0
  0
LINE
  5
18B
330
1F
100
AcDbEntity
  8
0
  6
Continuous
 62
     7
370
    25
100
AcDbLine
 10
584.3398184358
 20
93.3171582453
 30
0.0
 11
584.3398184358
 21
99.8180801682
 31
0.0
  0
LINE
  5
18C
330
1F
100
AcDbEntity
  8
0
  6
Continuous
 62
     7
370
    25
100
AcDbLine
 10
584.3398184358
 20
42.2180801682
 30
0.0
 11
584.3398184358
 21
48.7190020911
 31
0.0
  0
LINE
  5
18D
330
1F
100
AcDbEntity
  8
0
  6
Continuous
 62
     7
370
    25
100
AcDbLine
 10
140.64907139
 20
498.0607822607
 30
0.0
 11
140.64907139
 21
428.0607822607
 31
0.0
  0
LINE
  5
18E
330
1F
100
AcDbEntity
  8
0
  6
Continuous
 62
     7
370
    25
100
AcDbLine
 10
140.64907139
 20
428.0607822607
 30
0.0
 11
40.64907139
 21
428.0607822607
 31
0.0
  0
LINE
  5
18F
330
1F
100
AcDbEntity
  8
0
  6
Continuous
 62
     7
370
    25
100
AcDbLine
 10
40.64907139
 20
428.0607822607
 30
0.0
 11
40.64907139
 21
498.0607822607
 31
0.0
  0
LINE
  5
190
330
1F
100
AcDbEntity
  8
0
  6
Continuous
 62
     7
370
    25
100
AcDbLine
 10
140.64907139
 20
498.0607822607
 30
0.0
 11
40.64907139
 21
498.0607822607
 31
0.0
  0
LINE
  5
191
330
1F
100
AcDbEntity
  8
0
  6
Continuous
 62
     7
370
    25
100
AcDbLine
 10
37.34907139
 20
491.0607822607
 30
0.0
 11
37.34907139
 21
435.0607822607
 31
0.0
  0
LINE
  5
192
330
1F
100
AcDbEntity
  8
0
  6
Continuous
 62
     7
370
    25
100
AcDbLine
 10
40.64907139
 20
434.5617041836
 30
0.0
 11
37.34907139
 21
435.0607822607
 31
0.0
  0
LINE
  5
193
330
1F
100
AcDbEntity
  8
0
  6
Continuous
 62
     7
370
    25
100
AcDbLine
 10
40.64907139
 20
491.5598603378
 30
0.0
 11
37.34907139
 21
491.0607822607
 31
0.0
  0
LINE
  5
194
330
1F
100
AcDbEntity
  8
0
  6
Continuous
 62
     7
370
    25
100
AcDbLine
 10
40.64907139
 20
506.0607822607
 30
0.0
 11
140.64907139
 21
506.0607822607
 31
0.0
  0
LINE
  5
195
330
1F
100
AcDbEntity
  8
0
  6
Continuous
 62
     7
370
    25
100
AcDbLine
 10
40.64907139
 20
508.0607822607
 30
0.0
 11
140.64907139
 21
508.0607822607
 31
0.0
  0
LINE
  5
196
330
1F
100
AcDbEntity
  8
0
  6
Continuous
 62
     7
370
    25
100
AcDbLine
 10
40.64907139
 20
506.0607822607
 30
0.0
 11
40.64907139
 21
508.0607822607
 31
0.0
  0
LINE
  5
197
330
1F
100
AcDbEntity
  8
0
  6
Continuous
 62
     7
370
    25
100
AcDbLine
 10
140.64907139
 20
506.0607822607
 30
0.0
 11
140.64907139
 21
508.0607822607
 31
0.0
  0
LINE
  5
198
330
1F
100
AcDbEntity
  8
0
  6
Continuous
 62
     7
370
    25
100
AcDbLine
 10
140.64907139
 20
552.0607822607
 30
0.0
 11
40.64907139
 21
552.0607822607
 31
0.0
  0
LINE
  5
199
330
1F
100
AcDbEntity
  8
0
  6
Continuous
 62
     7
370
    25
100
AcDbLine
 10
40.64907139
 20
508.0607822607
 30
0.0
 11
40.64907139
 21
552.0607822607
 31
0.0
  0
LINE
  5
19A
330
1F
100
AcDbEntity
  8
0
  6
Continuous
 62
     7
370
    25
100
AcDbLine
 10
140.64907139
 20
552.0607822607
 30
0.0
 11
140.64907139
 21
508.0607822607
 31
0.0
  0
LINE
  5
19B
330
1F
100
AcDbEntity
  8
0
  6
Continuous
 62
     7
370
    25
100
AcDbLine
 10
40.64907139
 20
504.0607822607
 30
0.0
 11
140.64907139
 21
504.0607822607
 31
0.0
  0
LINE
  5
19C
330
1F
100
AcDbEntity
  8
0
  6
Continuous
 62
     7
370
    25
100
AcDbLine
 10
40.64907139
 20
504.0607822607
 30
0.0
 11
40.64907139
 21
506.0607822607
 31
0.0
  0
LINE
  5
19D
330
1F
100
AcDbEntity
  8
0
  6
Continuous
 62
     7
370
    25
100
AcDbLine
 10
140.64907139
 20
504.0607822607
 30
0.0
 11
140.64907139
 21
506.0607822607
 31
0.0
  0
LINE
  5
19E
330
1F
100
AcDbEntity
  8
0
  6
Continuous
 62
     7
370
    25
100
AcDbLine
 10
40.64907139
 20
498.0607822607
 30
0.0
 11
40.64907139
 21
504.0607822607
 31
0.0
  0
LINE
  5
19F
330
1F
100
AcDbEntity
  8
0
  6
Continuous
 62
     7
370
    25
100
AcDbLine
 10
140.64907139
 20
504.0607822607
 30
0.0
 11
140.64907139
 21
498.0607822607
 31
0.0
  0
LINE
  5
1A0
330
1F
100
AcDbEntity
  8
0
  6
Continuous
 62
     7
370
    25
100
AcDbLine
 10
37.34907139
 20
552.0607822607
 30
0.0
 11
40.64907139
 21
552.0607822607
 31
0.0
  0
LINE
  5
1A1
330
1F
100
AcDbEntity
  8
0
  6
Continuous
 62
     7
370
    25
100
AcDbLine
 10
37.34907139
 20
552.0607822607
 30
0.0
 11
37.34907139
 21
491.0607822607
 31
0.0
  0
LINE
  5
1A2
330
1F
100
AcDbEntity
  8
0
  6
Continuous
 62
     7
370
    25
100
AcDbLine
 10
457.4787680868
 20
322.3007934984
 30
0.0
 11
457.4787680868
 21
327.2000383697
 31
0.0
  0
LINE
  5
1A3
330
1F
100
AcDbEntity
  8
0
  6
Continuous
 62
     7
370
    25
100
AcDbLine
 10
468.933897942
 20
328.9136992041
 30
0.0
 11
457.4787680868
 21
322.3007934984
 31
0.0
  0
LINE
  5
1A4
330
1F
100
AcDbEntity
  8
0
  6
Continuous
 62
     7
370
    25
100
AcDbLine
 10
468.933897942
 20
271.7558423721
 30
0.0
 11
468.933897942
 21
328.9136992041
 31
0.0
  0
LINE
  5
1A5
330
1F
100
AcDbEntity
  8
0
  6
Continuous
 62
     7
370
    25
100
AcDbLine
 10
405.2942876352
 20
235.0174773401
 30
0.0
 11
468.933897942
 21
271.7558423721
 31
0.0
  0
LINE
  5
1A6
330
1F
100
AcDbEntity
  8
0
  6
Continuous
 62
     7
370
    25
100
AcDbLine
 10
405.2942876352
 20
292.1753341721
 30
0.0
 11
405.2942876352
 21
235.0174773401
 31
0.0
  0
LINE
  5
1A7
330
1F
100
AcDbEntity
  8
0
  6
Continuous
 62
     7
370
    25
100
AcDbLine
 10
416.7494174904
 20
298.7882398779
 30
0.0
 11
405.2942876352
 21
292.1753341721
 31
0.0
  0
LINE
  5
1A8
330
1F
100
AcDbEntity
  8
0
  6
Continuous
 62
     7
370
    25
100
AcDbLine
 10
416.7494174904
 20
303.6874847492
 30
0.0
 11
416.7494174904
 21
298.7882398779
 31
0.0
  0
LINE
  5
1A9
330
1F
100
AcDbEntity
  8
0
  6
Continuous
 62
     7
370
    25
100
AcDbLine
 10
416.7494174904
 20
303.6874847492
 30
0.0
 11
418.1636310528
 21
306.1369744848
 31
0.0
  0
LINE
  5
1AA
330
1F
100
AcDbEntity
  8
0
  6
Continuous
 62
     7
370
    25
100
AcDbLine
 10
418.1636310528
 20
306.1369744848
 30
0.0
 11
416.7494174904
 21
306.9536479967
 31
0.0
  0
LINE
  5
1AB
330
1F
100
AcDbEntity
  8
0
  6
Continuous
 62
     7
370
    25
100
AcDbLine
 10
416.7494174904
 20
342.8814437197
 30
0.0
 11
416.7494174904
 21
306.9536479967
 31
0.0
  0
LINE
  5
1AC
330
1F
100
AcDbEntity
  8
0
  6
Continuous
 62
     7
370
    25
100
AcDbLine
 10
421.3462634661
 20
345.5351464158
 30
0.0
 11
416.7494174904
 21
342.8814437197
 31
0.0
  0
LINE
  5
1AD
330
1F
100
AcDbEntity
  8
0
  6
Continuous
 62
     7
370
    25
100
AcDbLine
 10
421.3462634661
 20
296.133674509
 30
0.0
 11
421.3462634661
 21
345.5351464158
 31
0.0
  0
LINE
  5
1AE
330
1F
100
AcDbEntity
  8
0
  6
Continuous
 62
     7
370
    25
100
AcDbLine
 10
409.8911336109
 20
289.5207688033
 30
0.0
 11
421.3462634661
 21
296.133674509
 31
0.0
  0
LINE
  5
1AF
330
1F
100
AcDbEntity
  8
0
  6
Continuous
 62
     7
370
    25
100
AcDbLine
 10
409.8911336109
 20
242.9794481012
 30
0.0
 11
409.8911336109
 21
289.5207688033
 31
0.0
  0
LINE
  5
1B0
330
1F
100
AcDbEntity
  8
0
  6
Continuous
 62
     7
370
    25
100
AcDbLine
 10
454.8624729964
 20
315.4821704266
 30
0.0
 11
464.3370519664
 21
320.9517284431
 31
0.0
  0
LINE
  5
1B1
330
1F
100
AcDbEntity
  8
0
  6
Continuous
 62
     7
370
    25
100
AcDbLine
 10
457.4787680868
 20
366.3939973402
 30
0.0
 11
452.8819221111
 21
363.7402946441
 31
0.0
  0
LINE
  5
1B2
330
1F
100
AcDbEntity
  8
0
  6
Continuous
 62
     7
370
    25
100
AcDbLine
 10
457.4787680868
 20
330.4662016172
 30
0.0
 11
457.4787680868
 21
366.3939973402
 31
0.0
  0
LINE
  5
1B3
330
1F
100
AcDbEntity
  8
0
  6
Continuous
 62
     7
370
    25
100
AcDbLine
 10
456.0645545244
 20
328.0167118816
 30
0.0
 11
457.4787680868
 21
330.4662016172
 31
0.0
  0
LINE
  5
1B4
330
1F
100
AcDbEntity
  8
0
  6
Continuous
 62
     7
370
    25
100
AcDbLine
 10
457.4787680868
 20
327.2000383697
 30
0.0
 11
456.0645545244
 21
328.0167118816
 31
0.0
  0
LINE
  5
1B5
330
1F
100
AcDbEntity
  8
0
  6
Continuous
 62
     7
370
    25
100
AcDbLine
 10
449.2056187469
 20
355.2494294635
 30
0.0
 11
449.2056187469
 21
322.9960673941
 31
0.0
  0
LINE
  5
1B6
330
1F
100
AcDbEntity
  8
0
  6
Continuous
 62
     7
370
    25
100
AcDbLine
 10
449.2056187469
 20
355.2494294635
 30
0.0
 11
452.0340458716
 21
356.8822456872
 31
0.0
  0
LINE
  5
1B7
330
1F
100
AcDbEntity
  8
0
  6
Continuous
 62
     7
370
    25
100
AcDbLine
 10
452.0340458716
 20
356.8822456872
 30
0.0
 11
452.0340458716
 21
360.5566793407
 31
0.0
  0
LINE
  5
1B8
330
1F
100
AcDbEntity
  8
0
  6
Continuous
 62
     7
370
    25
100
AcDbLine
 10
452.0340458716
 20
360.5566793407
 30
0.0
 11
454.8624729964
 21
362.1894955643
 31
0.0
  0
LINE
  5
1B9
330
1F
100
AcDbEntity
  8
0
  6
Continuous
 62
     7
370
    25
100
AcDbLine
 10
454.8624729964
 20
362.1894955643
 30
0.0
 11
454.8624729964
 21
312.3805060393
 31
0.0
  0
LINE
  5
1BA
330
1F
100
AcDbEntity
  8
0
  6
Continuous
 62
     7
370
    25
100
AcDbLine
 10
454.8624729964
 20
312.3805060393
 30
0.0
 11
466.3176028516
 21
318.9934117451
 31
0.0
  0
LINE
  5
1BB
330
1F
100
AcDbEntity
  8
0
  6
Continuous
 62
     7
370
    25
100
AcDbLine
 10
466.3176028516
 20
318.9934117451
 30
0.0
 11
466.3176028516
 21
273.2671262795
 31
0.0
  0
LINE
  5
1BC
330
1F
100
AcDbEntity
  8
0
  6
Continuous
 62
     7
370
    25
100
AcDbLine
 10
466.3176028516
 20
273.2671262795
 30
0.0
 11
412.5774874814
 21
242.2436180302
 31
0.0
  0
LINE
  5
1BD
330
1F
100
AcDbEntity
  8
0
  6
Continuous
 62
     7
370
    25
100
AcDbLine
 10
412.5774874814
 20
242.2436180302
 30
0.0
 11
412.5774874814
 21
287.9699034958
 31
0.0
  0
LINE
  5
1BE
330
1F
100
AcDbEntity
  8
0
  6
Continuous
 62
     7
370
    25
100
AcDbLine
 10
412.5774874814
 20
287.9699034958
 30
0.0
 11
424.0326173367
 21
294.5828092016
 31
0.0
  0
LINE
  5
1BF
330
1F
100
AcDbEntity
  8
0
  6
Continuous
 62
     7
370
    25
100
AcDbLine
 10
424.0326173367
 20
294.5828092016
 30
0.0
 11
424.0326173367
 21
344.3917987266
 31
0.0
  0
LINE
  5
1C0
330
1F
100
AcDbEntity
  8
0
  6
Continuous
 62
     7
370
    25
100
AcDbLine
 10
424.0326173367
 20
344.3917987266
 30
0.0
 11
426.8610444614
 21
346.0246149502
 31
0.0
  0
LINE
  5
1C1
330
1F
100
AcDbEntity
  8
0
  6
Continuous
 62
     7
370
    25
100
AcDbLine
 10
426.8610444614
 20
342.3501812967
 30
0.0
 11
426.8610444614
 21
346.0246149502
 31
0.0
  0
LINE
  5
1C2
330
1F
100
AcDbEntity
  8
0
  6
Continuous
 62
     7
370
    25
100
AcDbLine
 10
426.8610444614
 20
342.3501812967
 30
0.0
 11
429.6894715862
 21
343.9829975204
 31
0.0
  0
LINE
  5
1C3
330
1F
100
AcDbEntity
  8
0
  6
Continuous
 62
     7
370
    25
100
AcDbLine
 10
429.6894715862
 20
311.7296354509
 30
0.0
 11
429.6894715862
 21
343.9829975204
 31
0.0
  0
LINE
  5
1C4
330
1F
100
AcDbEntity
  8
0
  6
Continuous
 62
     7
370
    25
100
AcDbLine
 10
429.6894715862
 20
311.7296354509
 30
0.0
 11
428.2752580238
 21
309.2801457153
 31
0.0
  0
LINE
  5
1C5
330
1F
100
AcDbEntity
  8
0
  6
Continuous
 62
     7
370
    25
100
AcDbLine
 10
428.2752580238
 20
309.2801457153
 30
0.0
 11
429.6894715862
 21
308.4634722034
 31
0.0
  0
LINE
  5
1C6
330
1F
100
AcDbEntity
  8
0
  6
Continuous
 62
     7
370
    25
100
AcDbLine
 10
429.6894715862
 20
291.3161151538
 30
0.0
 11
429.6894715862
 21
308.4634722034
 31
0.0
  0
LINE
  5
1C7
330
1F
100
AcDbEntity
  8
0
  6
Continuous
 62
     7
370
    25
100
AcDbLine
 10
418.2343417309
 20
284.703209448
 30
0.0
 11
429.6894715862
 21
291.3161151538
 31
0.0
  0
LINE
  5
1C8
330
1F
100
AcDbEntity
  8
0
  6
Continuous
 62
     7
370
    25
100
AcDbLine
 10
418.2343417309
 20
252.0415769726
 30
0.0
 11
418.2343417309
 21
284.703209448
 31
0.0
  0
LINE
  5
1C9
330
1F
100
AcDbEntity
  8
0
  6
Continuous
 62
     7
370
    25
100
AcDbLine
 10
460.6607486021
 20
276.5338203272
 30
0.0
 11
418.2343417309
 21
252.0415769726
 31
0.0
  0
LINE
  5
1CA
330
1F
100
AcDbEntity
  8
0
  6
Continuous
 62
     7
370
    25
100
AcDbLine
 10
460.6607486021
 20
309.1954528027
 30
0.0
 11
460.6607486021
 21
276.5338203272
 31
0.0
  0
LINE
  5
1CB
330
1F
100
AcDbEntity
  8
0
  6
Continuous
 62
     7
370
    25
100
AcDbLine
 10
449.2056187469
 20
302.5825470969
 30
0.0
 11
460.6607486021
 21
309.1954528027
 31
0.0
  0
LINE
  5
1CC
330
1F
100
AcDbEntity
  8
0
  6
Continuous
 62
     7
370
    25
100
AcDbLine
 10
449.2056187469
 20
319.7299041465
 30
0.0
 11
449.2056187469
 21
302.5825470969
 31
0.0
  0
LINE
  5
1CD
330
1F
100
AcDbEntity
  8
0
  6
Continuous
 62
     7
370
    25
100
AcDbLine
 10
450.6198323093
 20
322.1793938821
 30
0.0
 11
449.2056187469
 21
319.7299041465
 31
0.0
  0
LINE
  5
1CE
330
1F
100
AcDbEntity
  8
0
  6
Continuous
 62
     7
370
    25
100
AcDbLine
 10
449.2056187469
 20
322.9960673941
 30
0.0
 11
450.6198323093
 21
322.1793938821
 31
0.0
  0
LINE
  5
1CF
330
1F
100
AcDbEntity
  8
0
  6
Continuous
 62
     7
370
    25
100
AcDbLine
 10
346.0387393718
 20
383.7018493109
 30
0.0
 11
416.7494174904
 21
342.8814437197
 31
0.0
  0
LINE
  5
1D0
330
1F
100
AcDbEntity
  8
0
  6
Continuous
 62
     7
370
    25
100
AcDbLine
 10
346.0387393718
 20
383.7018493109
 30
0.0
 11
350.2813800589
 21
386.1510736463
 31
0.0
  0
LINE
  5
1D1
330
1F
100
AcDbEntity
  8
0
  6
Continuous
 62
     7
370
    25
100
AcDbLine
 10
352.9677339295
 20
385.0077259571
 30
0.0
 11
350.2813800589
 21
386.1510736463
 31
0.0
  0
LINE
  5
1D2
330
1F
100
AcDbEntity
  8
0
  6
Continuous
 62
     7
370
    25
100
AcDbLine
 10
352.9677339295
 20
385.0077259571
 30
0.0
 11
356.1503663428
 21
386.8450205414
 31
0.0
  0
LINE
  5
1D3
330
1F
100
AcDbEntity
  8
0
  6
Continuous
 62
     7
370
    25
100
AcDbLine
 10
356.1503663428
 20
386.8450205414
 30
0.0
 11
426.8610444614
 21
346.0246149502
 31
0.0
  0
LINE
  5
1D4
330
1F
100
AcDbEntity
  8
0
  6
Continuous
 62
     7
370
    25
100
AcDbLine
 10
421.3462634661
 20
345.5351464158
 30
0.0
 11
424.0326173367
 21
344.3917987266
 31
0.0
  0
LINE
  5
1D5
330
1F
100
AcDbEntity
  8
0
  6
Continuous
 62
     7
370
    25
100
AcDbLine
 10
416.7494174904
 20
306.9536479967
 30
0.0
 11
346.0387393718
 21
347.7740535879
 31
0.0
  0
LINE
  5
1D6
330
1F
100
AcDbEntity
  8
0
  6
Continuous
 62
     7
370
    25
100
AcDbLine
 10
346.0387393718
 20
347.7740535879
 30
0.0
 11
346.0387393718
 21
383.7018493109
 31
0.0
  0
LINE
  5
1D7
330
1F
100
AcDbEntity
  8
0
  6
Continuous
 62
     7
370
    25
100
AcDbLine
 10
421.3462634661
 20
296.133674509
 30
0.0
 11
424.0326173367
 21
294.5828092016
 31
0.0
  0
LINE
  5
1D8
330
1F
100
AcDbEntity
  8
0
  6
Continuous
 62
     7
370
    25
100
AcDbLine
 10
426.8610444614
 20
345.615813744
 30
0.0
 11
429.6894715862
 21
343.9829975204
 31
0.0
  0
LINE
  5
1D9
330
1F
100
AcDbEntity
  8
0
  6
Continuous
 62
     7
370
    25
100
AcDbLine
 10
334.5836095166
 20
332.9957397633
 30
0.0
 11
405.2942876352
 21
292.1753341721
 31
0.0
  0
LINE
  5
1DA
330
1F
100
AcDbEntity
  8
0
  6
Continuous
 62
     7
370
    25
100
AcDbLine
 10
334.5836095166
 20
332.9957397633
 30
0.0
 11
346.0387393718
 21
339.608645469
 31
0.0
  0
LINE
  5
1DB
330
1F
100
AcDbEntity
  8
0
  6
Continuous
 62
     7
370
    25
100
AcDbLine
 10
346.0387393718
 20
339.608645469
 30
0.0
 11
416.7494174904
 21
298.7882398779
 31
0.0
  0
LWPOLYLINE
  5
1DC
330
1F
100
AcDbEntity
  8
0
  6
Continuous
 62
     7
370
    25
100
AcDbPolyline
 90
       48
 70
   128
 43
0.0
 10
359.0848594847
 20
325.3827341205
 10
358.8837449274
 20
325.484266261
 10
358.6609825897
 20
325.569417736
 10
358.4205476707
 20
325.6366690153
 10
358.1667307372
 20
325.6848199984
 10
357.9040611585
 20
325.7130114296
 10
357.6372262793
 20
325.7207402324
 10
357.3709877744
 20
325.707868486
 10
357.1100966763
 20
325.6746258871
 10
356.8592085928
 20
325.6216056505
 10
356.6228006276
 20
325.5497539238
 10
356.4050914866
 20
325.4603529026
 10
356.2099661944
 20
325.3549979503
 10
356.0409067666
 20
325.2355691286
 10
355.9009300726
 20
325.1041976475
 10
355.7925339999
 20
324.9632278342
 10
355.7176528789
 20
324.8151752985
 10
355.6776229651
 20
324.6626820413
 10
355.6731585931
 20
324.5084693085
 10
355.7043394299
 20
324.3552890298
 10
355.7706090526
 20
324.205874711
 10
355.8707848782
 20
324.0628926541
 10
356.0030792669
 20
323.9288943774
 10
356.165131422
 20
323.8062710833
 10
356.354049519
 20
323.6972109873
 10
356.56646231
 20
323.6036602694
 10
356.7985792837
 20
323.5272883445
 10
357.0462583073
 20
323.4694580713
 10
357.3050795427
 20
323.4312014324
 10
357.5704243187
 20
323.4132011185
 10
357.8375575517
 20
323.4157783456
 10
358.1017122426
 20
323.438887123
 10
358.3581745449
 20
323.482115074
 10
358.6023678826
 20
323.5446907948
 10
358.8299346199
 20
323.6254976202
 10
359.0368138229
 20
323.7230935505
 10
359.2193137273
 20
323.835736984
 10
359.3741776181
 20
323.9614177959
 10
359.4986419453
 20
324.0978932092
 10
359.5904856403
 20
324.242727817
 10
359.64806975
 20
324.3933370421
 10
359.6703666847
 20
324.5470332594
 10
359.656978555
 20
324.7010737563
 10
359.6081442723
 20
324.8527096765
 10
359.5247352858
 20
324.9992350733
 10
359.4082400306
 20
325.1380351976
 10
359.2607373674
 20
325.2666331579
 10
359.0848594847
 20
325.3827341205
  0
LWPOLYLINE
  5
1DD
330
1F
100
AcDbEntity
  8
0
  6
Continuous
 62
     7
370
    25
100
AcDbPolyline
 90
       48
 70
   128
 43
0.0
 10
394.440198544
 20
304.9725313249
 10
394.2390839868
 20
305.0740634655
 10
394.016321649
 20
305.1592149404
 10
393.77588673
 20
305.2264662198
 10
393.5220697965
 20
305.2746172028
 10
393.2594002178
 20
305.3028086341
 10
392.9925653386
 20
305.3105374368
 10
392.7263268338
 20
305.2976656904
 10
392.4654357357
 20
305.2644230915
 10
392.2145476521
 20
305.211402855
 10
391.978139687
 20
305.1395511282
 10
391.7604305459
 20
305.050150107
 10
391.5653052537
 20
304.9447951548
 10
391.3962458259
 20
304.825366333
 10
391.2562691319
 20
304.6939948519
 10
391.1478730592
 20
304.5530250387
 10
391.0729919383
 20
304.4049725029
 10
391.0329620244
 20
304.2524792458
 10
391.0284976525
 20
304.0982665129
 10
391.0596784892
 20
303.9450862342
 10
391.1259481119
 20
303.7956719154
 10
391.2261239376
 20
303.6526898586
 10
391.3584183262
 20
303.5186915819
 10
391.5204704813
 20
303.3960682877
 10
391.7093885783
 20
303.2870081917
 10
391.9218013693
 20
303.1934574739
 10
392.1539183431
 20
303.1170855489
 10
392.4015973666
 20
303.0592552757
 10
392.660418602
 20
303.0209986369
 10
392.9257633781
 20
303.0029983229
 10
393.192896611
 20
303.00557555
 10
393.457051302
 20
303.0286843274
 10
393.7135136042
 20
303.0719122784
 10
393.9577069419
 20
303.1344879992
 10
394.1852736792
 20
303.2152948246
 10
394.3921528822
 20
303.3128907549
 10
394.5746527866
 20
303.4255341884
 10
394.7295166774
 20
303.5512150003
 10
394.8539810047
 20
303.6876904137
 10
394.9458246996
 20
303.8325250214
 10
395.0034088093
 20
303.9831342465
 10
395.025705744
 20
304.1368304639
 10
395.0123176143
 20
304.2908709608
 10
394.9634833317
 20
304.4425068809
 10
394.8800743451
 20
304.5890322777
 10
394.7635790899
 20
304.727832402
 10
394.6160764267
 20
304.8564303623
 10
394.440198544
 20
304.9725313249
  0
LINE
  5
1DE
330
1F
100
AcDbEntity
  8
0
  6
Continuous
 62
     7
370
    25
100
AcDbLine
 10
334.5836095166
 20
275.8378829313
 30
0.0
 11
405.2942876352
 21
235.0174773401
 31
0.0
  0
LINE
  5
1DF
330
1F
100
AcDbEntity
  8
0
  6
Continuous
 62
     7
370
    25
100
AcDbLine
 10
334.5836095166
 20
275.8378829313
 30
0.0
 11
334.5836095166
 21
332.9957397633
 31
0.0
  0
LWPOLYLINE
  5
1E0
330
1F
100
AcDbEntity
  8
0
  6
Continuous
 62
     7
370
    25
100
AcDbPolyline
 90
       61
 70
   128
 43
0.0
 10
371.1056747648
 20
275.1676637406
 10
370.8654582129
 20
275.2918002422
 10
370.6278735238
 20
275.3855015544
 10
370.3955237251
 20
275.4477410658
 10
370.1709544898
 20
275.4778368674
 10
369.9566262454
 20
275.4754592233
 10
369.7548872171
 20
275.4406341835
 10
369.5679476998
 20
275.3737432984
 10
369.397855842
 20
275.2755194385
 10
369.2464752057
 20
275.1470387649
 10
369.1154643488
 20
274.9897089389
 10
369.0062586538
 20
274.8052536989
 10
368.920054601
 20
274.5956939751
 10
368.85779666
 20
274.3633257478
 10
368.820166942
 20
274.1106948918
 10
368.807577726
 20
273.8405692837
 10
368.820166942
 20
273.5559084761
 10
368.85779666
 20
273.2598312725
 10
368.920054601
 20
272.9555815566
 10
369.0062586538
 20
272.646492752
 10
369.1154643488
 20
272.3359513003
 10
369.2464752057
 20
272.0273595586
 10
369.397855842
 20
271.7240985227
 10
369.5679476998
 20
271.4294907839
 10
369.7548872171
 20
271.1467641263
 10
369.9566262454
 20
270.8790161623
 10
370.1709544898
 20
270.6291803945
 10
370.3955237251
 20
270.399994076
 10
370.6278735238
 20
270.1939682201
 10
370.8654582129
 20
270.013360089
 10
371.1056747648
 20
269.8601484633
 10
371.3458913168
 20
269.7360119617
 10
371.5834760059
 20
269.6423106495
 10
371.8158258046
 20
269.5800711381
 10
372.0403950399
 20
269.5499753365
 10
372.2547232843
 20
269.5523529806
 10
372.4564623126
 20
269.5871780204
 10
372.6434018299
 20
269.6540689055
 10
372.8134936877
 20
269.7522927654
 10
372.964874324
 20
269.880773439
 10
373.0958851809
 20
270.038103265
 10
373.2050908759
 20
270.222558505
 10
373.2912949287
 20
270.4321182288
 10
373.3535528697
 20
270.6644864561
 10
373.3911825877
 20
270.9171173121
 10
373.4037718037
 20
271.1872429202
 10
373.3911825877
 20
271.4719037278
 10
373.3535528697
 20
271.7679809314
 10
373.2912949287
 20
272.0722306473
 10
373.2050908759
 20
272.3813194519
 10
373.0958851809
 20
272.6918609036
 10
372.964874324
 20
273.0004526453
 10
372.8134936877
 20
273.3037136812
 10
372.6434018299
 20
273.59832142
 10
372.4564623126
 20
273.8810480776
 10
372.2547232843
 20
274.1487960416
 10
372.0403950399
 20
274.3986318094
 10
371.8158258046
 20
274.6278181279
 10
371.5834760059
 20
274.8338439838
 10
371.3458913168
 20
275.0144521149
 10
371.1056747648
 20
275.1676637406
  0
LINE
  5
1E1
330
1F
100
AcDbEntity
  8
0
  6
Continuous
 62
     7
370
    25
100
AcDbLine
 10
452.0340458716
 20
360.5566793407
 30
0.0
 11
381.323367753
 21
401.3770849318
 31
0.0
  0
LINE
  5
1E2
330
1F
100
AcDbEntity
  8
0
  6
Continuous
 62
     7
370
    25
100
AcDbLine
 10
381.323367753
 20
401.3770849318
 30
0.0
 11
384.5060001663
 21
403.2143795161
 31
0.0
  0
LINE
  5
1E3
330
1F
100
AcDbEntity
  8
0
  6
Continuous
 62
     7
370
    25
100
AcDbLine
 10
382.525449281
 20
404.7651785959
 30
0.0
 11
384.5060001663
 21
403.2143795161
 31
0.0
  0
LINE
  5
1E4
330
1F
100
AcDbEntity
  8
0
  6
Continuous
 62
     7
370
    25
100
AcDbLine
 10
382.525449281
 20
404.7651785959
 30
0.0
 11
386.7680899681
 21
407.2144029313
 31
0.0
  0
LINE
  5
1E5
330
1F
100
AcDbEntity
  8
0
  6
Continuous
 62
     7
370
    25
100
AcDbLine
 10
386.7680899681
 20
407.2144029313
 30
0.0
 11
457.4787680868
 21
366.3939973402
 31
0.0
  0
LINE
  5
1E6
330
1F
100
AcDbEntity
  8
0
  6
Continuous
 62
     7
370
    25
100
AcDbLine
 10
454.8624729964
 20
362.1894955643
 30
0.0
 11
452.8819221111
 21
363.7402946441
 31
0.0
  0
LINE
  5
1E7
330
1F
100
AcDbEntity
  8
0
  6
Continuous
 62
     7
370
    25
100
AcDbLine
 10
452.0340458716
 20
356.8822456872
 30
0.0
 11
381.323367753
 21
397.7026512783
 31
0.0
  0
LINE
  5
1E8
330
1F
100
AcDbEntity
  8
0
  6
Continuous
 62
     7
370
    25
100
AcDbLine
 10
381.323367753
 20
397.7026512783
 30
0.0
 11
381.323367753
 21
401.3770849318
 31
0.0
  0
LINE
  5
1E9
330
1F
100
AcDbEntity
  8
0
  6
Continuous
 62
     7
370
    25
100
AcDbLine
 10
449.2056187469
 20
355.2494294635
 30
0.0
 11
378.4949406282
 21
396.0698350547
 31
0.0
  0
LINE
  5
1EA
330
1F
100
AcDbEntity
  8
0
  6
Continuous
 62
     7
370
    25
100
AcDbLine
 10
381.323367753
 20
397.7026512783
 30
0.0
 11
378.4949406282
 21
396.0698350547
 31
0.0
  0
LINE
  5
1EB
330
1F
100
AcDbEntity
  8
0
  6
Continuous
 62
     7
370
    25
100
AcDbLine
 10
449.2056187469
 20
322.9960673941
 30
0.0
 11
429.6894715862
 21
334.2624993372
 31
0.0
  0
LINE
  5
1EC
330
1F
100
AcDbEntity
  8
0
  6
Continuous
 62
     7
370
    25
100
AcDbLine
 10
378.4949406282
 20
396.0698350547
 30
0.0
 11
378.4949406282
 21
373.9457723746
 31
0.0
  0
LINE
  5
1ED
330
1F
100
AcDbEntity
  8
0
  6
Continuous
 62
     7
370
    25
100
AcDbLine
 10
347.4529529342
 20
346.9573800759
 30
0.0
 11
346.0387393718
 21
347.7740535879
 31
0.0
  0
LINE
  5
1EE
330
1F
100
AcDbEntity
  8
0
  6
Continuous
 62
     7
370
    25
100
AcDbLine
 10
418.1636310528
 20
306.1369744848
 30
0.0
 11
347.4529529342
 21
346.9573800759
 31
0.0
  0
LINE
  5
1EF
330
1F
100
AcDbEntity
  8
0
  6
Continuous
 62
     7
370
    25
100
AcDbLine
 10
346.0387393718
 20
344.5078903403
 30
0.0
 11
347.4529529342
 21
346.9573800759
 31
0.0
  0
LINE
  5
1F0
330
1F
100
AcDbEntity
  8
0
  6
Continuous
 62
     7
370
    25
100
AcDbLine
 10
416.7494174904
 20
303.6874847492
 30
0.0
 11
346.0387393718
 21
344.5078903403
 31
0.0
  0
LINE
  5
1F1
330
1F
100
AcDbEntity
  8
0
  6
Continuous
 62
     7
370
    25
100
AcDbLine
 10
409.8911336109
 20
242.9794481012
 30
0.0
 11
412.5774874814
 21
242.2436180302
 31
0.0
  0
LINE
  5
1F2
330
1F
100
AcDbEntity
  8
0
  6
Continuous
 62
     7
370
    25
100
AcDbLine
 10
409.8911336109
 20
289.5207688033
 30
0.0
 11
412.5774874814
 21
287.9699034958
 31
0.0
  0
LINE
  5
1F3
330
1F
100
AcDbEntity
  8
0
  6
Continuous
 62
     7
370
    25
100
AcDbLine
 10
346.0387393718
 20
339.608645469
 30
0.0
 11
346.0387393718
 21
344.5078903403
 31
0.0
  0
SPLINE
  5
1F4
330
1F
100
AcDbEntity
  8
0
  6
Continuous
 62
     7
370
    25
100
AcDbSpline
210
0.0
220
0.0
230
1.0
 70
     8
 71
     3
 72
    27
 73
    23
 74
     0
 42
0.000000001
 43
0.00000001
 40
0.0
 40
0.0
 40
0.0
 40
0.0
 40
0.0017107853875057
 40
0.0546371194969823
 40
0.1090983208983656
 40
0.1620246538142395
 40
0.2164858547056528
 40
0.2694121829209925
 40
0.3238733784511693
 40
0.3767997105251668
 40
0.4312609111086644
 40
0.484187230005396
 40
0.5386484164454248
 40
0.5915747211936736
 40
0.646035890402492
 40
0.6989622093402844
 40
0.7534233930793723
 40
0.8063497248465135
 40
0.8608109231806393
 40
0.9137372553154678
 40
0.9681984563835794
 40
1.0
 40
1.0
 40
1.0
 40
1.0
 10
395.0250962100068
 20
304.1479349773059
 30
0.0
 10
395.0253913884698
 20
304.1499937371683
 30
0.0
 10
395.0348184627707
 20
304.2157440699916
 30
0.0
 10
395.0011366868071
 20
304.3480320290593
 30
0.0
 10
394.9208000011033
 20
304.5360960533335
 30
0.0
 10
394.7788589273021
 20
304.7149492308278
 30
0.0
 10
394.5904592955895
 20
304.8760572526942
 30
0.0
 10
394.3552412614434
 20
305.0179266976793
 30
0.0
 10
394.0847115980965
 20
305.1339861707893
 30
0.0
 10
393.7814933307608
 20
305.222958980342
 30
0.0
 10
393.459670602035
 20
305.2806739953721
 30
0.0
 10
393.1225485665742
 20
305.3066097873813
 30
0.0
 10
392.7857399020319
 20
305.2996569846833
 30
0.0
 10
392.4527162941193
 20
305.2598537507749
 30
0.0
 10
392.1388936012385
 20
305.1889246367607
 30
0.0
 10
391.8475223673842
 20
305.0875752959009
 30
0.0
 10
391.5920338800909
 20
304.9606137788207
 30
0.0
 10
391.3752860811123
 20
304.8094297836764
 30
0.0
 10
391.2064782352548
 20
304.640937507592
 30
0.0
 10
391.09047980011
 20
304.4567375560159
 30
0.0
 10
391.0301590572104
 20
304.2906380745446
 30
0.0
 10
391.0319503221259
 20
304.18630283031
 30
0.0
 10
391.0326106881917
 20
304.1478386957361
 30
0.0
  0
SPLINE
  5
1F5
330
1F
100
AcDbEntity
  8
0
  6
Continuous
 62
     7
370
    25
100
AcDbSpline
210
0.0
220
0.0
230
1.0
 70
    11
 71
     3
 72
    70
 73
    66
 74
     0
 42
0.000000001
 43
0.00000001
 40
0.0
 40
0.0
 40
0.0
 40
0.0
 40
0.0312500000000033
 40
0.0312500000000033
 40
0.0625000000000067
 40
0.0625000000000067
 40
0.09375000000001
 40
0.09375000000001
 40
0.1250000000000133
 40
0.1250000000000133
 40
0.1562500000000167
 40
0.1562500000000167
 40
0.18750000000002
 40
0.18750000000002
 40
0.2187500000000233
 40
0.2187500000000233
 40
0.2500000000000266
 40
0.2500000000000266
 40
0.28125000000003
 40
0.28125000000003
 40
0.3125000000000333
 40
0.3125000000000333
 40
0.3437500000000366
 40
0.3437500000000366
 40
0.37500000000004
 40
0.37500000000004
 40
0.4062500000000433
 40
0.4062500000000433
 40
0.4375000000000466
 40
0.4375000000000466
 40
0.46875000000005
 40
0.46875000000005
 40
0.5000000000000533
 40
0.5000000000000533
 40
0.53125000000005
 40
0.53125000000005
 40
0.5625000000000466
 40
0.5625000000000466
 40
0.5937500000000433
 40
0.5937500000000433
 40
0.62500000000004
 40
0.62500000000004
 40
0.6562500000000366
 40
0.6562500000000366
 40
0.6875000000000333
 40
0.6875000000000333
 40
0.71875000000003
 40
0.71875000000003
 40
0.7500000000000266
 40
0.7500000000000266
 40
0.7812500000000233
 40
0.7812500000000233
 40
0.81250000000002
 40
0.81250000000002
 40
0.8437500000000167
 40
0.8437500000000167
 40
0.8750000000000133
 40
0.8750000000000133
 40
0.90625000000001
 40
0.90625000000001
 40
0.9375000000000067
 40
0.9375000000000067
 40
0.9687500000000033
 40
0.9687500000000033
 40
1.0
 40
1.0
 40
1.0
 40
1.0
 10
393.3088276941028
 20
303.4569193710502
 30
0.0
 10
393.290141623518
 20
303.4676419244504
 30
0.0
 10
393.2699343060017
 20
303.4771132400341
 30
0.0
 10
393.2266016415106
 20
303.4936566025288
 30
0.0
 10
393.2032020050938
 20
303.5007851360154
 30
0.0
 10
393.1547523089735
 20
303.51214443422
 30
0.0
 10
393.1298190091827
 20
303.5163909552452
 30
0.0
 10
393.0785482001046
 20
303.5220455082444
 30
0.0
 10
393.0520443402514
 20
303.5234225891734
 30
0.0
 10
392.9998554954773
 20
303.5231598462183
 30
0.0
 10
392.9739079776979
 20
303.5215671397596
 30
0.0
 10
392.9223137666355
 20
303.5153887420172
 30
0.0
 10
392.8970635872661
 20
303.5108241092872
 30
0.0
 10
392.8489236699497
 20
303.4990593212079
 30
0.0
 10
392.8256740873568
 20
303.4917757888381
 30
0.0
 10
392.7818989591658
 20
303.4746400010227
 30
0.0
 10
392.7617505803119
 20
303.4649614382199
 30
0.0
 10
392.7248393590141
 20
303.4434416025176
 30
0.0
 10
392.7079391014939
 20
303.4314529040648
 30
0.0
 10
392.6788772463083
 20
303.4061381892423
 30
0.0
 10
392.6665836909311
 20
303.3927827589312
 30
0.0
 10
392.6464962214351
 20
303.3646698431986
 30
0.0
 10
392.6387848491877
 20
303.3499178479405
 30
0.0
 10
392.628600363819
 20
303.3202792085792
 30
0.0
 10
392.6259987975784
 20
303.3052359669271
 30
0.0
 10
392.6259712743683
 20
303.2746847133108
 30
0.0
 10
392.6285556432503
 20
303.2596274554713
 30
0.0
 10
392.6386917117827
 20
303.2301037893872
 30
0.0
 10
392.6463597664378
 20
303.2154606628407
 30
0.0
 10
392.6664280471684
 20
303.1875119173629
 30
0.0
 10
392.6787075611232
 20
303.1742774813751
 30
0.0
 10
392.7077017165844
 20
303.1492679551221
 30
0.0
 10
392.7245902389766
 20
303.1374310606311
 30
0.0
 10
392.7614939129007
 20
303.1162402897958
 30
0.0
 10
392.7816216497313
 20
303.1067524774102
 30
0.0
 10
392.8252970192211
 20
303.0900378357371
 30
0.0
 10
392.8486096788683
 20
303.0829367561983
 30
0.0
 10
392.8967342857078
 20
303.0716039519733
 30
0.0
 10
392.9218861694683
 20
303.067278438229
 30
0.0
 10
392.9735584528729
 20
303.0615547467931
 30
0.0
 10
392.999517671196
 20
303.0602012928091
 30
0.0
 10
393.0516748514326
 20
303.0604216201509
 30
0.0
 10
393.0781584076296
 20
303.0620430299872
 30
0.0
 10
393.1294915507338
 20
303.0681880891382
 30
0.0
 10
393.1544273557424
 20
303.072674862666
 30
0.0
 10
393.2028343679115
 20
303.0844812186342
 30
0.0
 10
393.2262888020337
 20
303.091844513249
 30
0.0
 10
393.2696633019951
 20
303.1088066969681
 30
0.0
 10
393.2898675785279
 20
303.1184633216064
 30
0.0
 10
393.3272052303433
 20
303.1402100395123
 30
0.0
 10
393.3438435728297
 20
303.15202745926
 30
0.0
 10
393.3728384647188
 20
303.1772229777345
 30
0.0
 10
393.3853583850373
 20
303.1907845222997
 30
0.0
 10
393.4054891876602
 20
303.2189469725455
 30
0.0
 10
393.4130667243936
 20
303.2334126280912
 30
0.0
 10
393.4233245826896
 20
303.2631022757483
 30
0.0
 10
393.4259638109781
 20
303.2784579840974
 30
0.0
 10
393.4260058926054
 20
303.3086889861626
 30
0.0
 10
393.4234939678696
 20
303.3236924572182
 30
0.0
 10
393.4133190800939
 20
303.3534705412799
 30
0.0
 10
393.4056468940659
 20
303.3681002955096
 30
0.0
 10
393.3857583383537
 20
303.395886324494
 30
0.0
 10
393.3734503133146
 20
303.4092324385176
 30
0.0
 10
393.3441723600938
 20
303.434513264579
 30
0.0
 10
393.3275137646875
 20
303.44619681765
 30
0.0
 10
393.3088276941028
 20
303.4569193710502
 30
0.0
  0
ARC
  5
1F6
330
1F
100
AcDbEntity
  8
0
  6
Continuous
 62
     7
370
    25
100
AcDbCircle
 10
393.0260792315
 20
302.5334117882
 30
0.0
 40
0.6300290699038422
100
AcDbArc
 50
67.3215235812
 51
113.0121052308
  0
LINE
  5
1F7
330
1F
100
AcDbEntity
  8
0
  6
Continuous
 62
     7
370
    25
100
AcDbLine
 10
450.6198323093
 20
322.1793938821
 30
0.0
 11
429.6894715862
 21
334.2622339371
 31
0.0
  0
LINE
  5
1F8
330
1F
100
AcDbEntity
  8
0
  6
Continuous
 62
     7
370
    25
100
AcDbLine
 10
449.2056187469
 20
319.7299041465
 30
0.0
 11
429.6894715862
 21
330.9963360897
 31
0.0
  0
LINE
  5
1F9
330
1F
100
AcDbEntity
  8
0
  6
Continuous
 62
     7
370
    25
100
AcDbLine
 10
429.6894715862
 20
313.8489790401
 30
0.0
 11
449.2056187469
 21
302.5825470969
 31
0.0
  0
LINE
  5
1FA
330
1F
100
AcDbEntity
  8
0
  6
Continuous
 62
     7
370
    25
100
AcDbLine
 10
429.6894715862
 20
294.4131579762
 30
0.0
 11
460.6607486021
 21
276.5338203272
 31
0.0
  0
LINE
  5
1FB
330
1F
100
AcDbEntity
  8
0
  6
Continuous
 62
     7
370
    25
100
AcDbLine
 10
464.3370519664
 20
320.9517284431
 30
0.0
 11
466.3176028516
 21
318.9934117451
 31
0.0
  0
LINE
  5
1FC
330
1F
100
AcDbEntity
  8
0
  6
Continuous
 62
     7
370
    25
100
AcDbLine
 10
457.4787680868
 20
335.5266049099
 30
0.0
 11
468.933897942
 21
328.9136992041
 31
0.0
  0
SPLINE
  5
1FD
330
1F
100
AcDbEntity
  8
0
  6
Continuous
 62
     7
370
    25
100
AcDbSpline
210
0.0
220
0.0
230
1.0
 70
     8
 71
     3
 72
    27
 73
    23
 74
     0
 42
0.000000001
 43
0.00000001
 40
0.0
 40
0.0
 40
0.0
 40
0.0
 40
0.0017107853875016
 40
0.054637119496986
 40
0.1090983208983689
 40
0.1620246538142442
 40
0.216485854705651
 40
0.2694121829209924
 40
0.3238733784511691
 40
0.3767997105251703
 40
0.4312609111086629
 40
0.4841872300053955
 40
0.5386484164454297
 40
0.5915747211936732
 40
0.6460358904024934
 40
0.6989622093402884
 40
0.753423393079367
 40
0.8063497248465059
 40
0.8608109231806367
 40
0.9137372553154695
 40
0.968198456383581
 40
1.0
 40
1.0
 40
1.0
 40
1.0
 10
359.6697571506797
 20
324.5581377728738
 30
0.0
 10
359.6700523291428
 20
324.5601965327362
 30
0.0
 10
359.6794794034436
 20
324.6259468655597
 30
0.0
 10
359.6457976274801
 20
324.7582348246272
 30
0.0
 10
359.5654609417762
 20
324.9462988489014
 30
0.0
 10
359.423519867975
 20
325.1251520263957
 30
0.0
 10
359.2351202362624
 20
325.2862600482621
 30
0.0
 10
358.9999022021164
 20
325.4281294932473
 30
0.0
 10
358.7293725387694
 20
325.5441889663574
 30
0.0
 10
358.4261542714338
 20
325.6331617759098
 30
0.0
 10
358.1043315427079
 20
325.6908767909401
 30
0.0
 10
357.7672095072471
 20
325.7168125829493
 30
0.0
 10
357.4304008427048
 20
325.7098597802514
 30
0.0
 10
357.0973772347922
 20
325.6700565463428
 30
0.0
 10
356.7835545419114
 20
325.5991274323286
 30
0.0
 10
356.4921833080571
 20
325.4977780914689
 30
0.0
 10
356.2366948207638
 20
325.3708165743885
 30
0.0
 10
356.0199470217852
 20
325.2196325792444
 30
0.0
 10
355.8511391759277
 20
325.05114030316
 30
0.0
 10
355.7351407407829
 20
324.8669403515838
 30
0.0
 10
355.6748199978833
 20
324.7008408701126
 30
0.0
 10
355.6766112627988
 20
324.5965056258779
 30
0.0
 10
355.6772716288646
 20
324.558041491304
 30
0.0
  0
SPLINE
  5
1FE
330
1F
100
AcDbEntity
  8
0
  6
Continuous
 62
     7
370
    25
100
AcDbSpline
210
0.0
220
0.0
230
1.0
 70
    11
 71
     3
 72
    70
 73
    66
 74
     0
 42
0.000000001
 43
0.00000001
 40
0.0
 40
0.0
 40
0.0
 40
0.0
 40
0.03125
 40
0.03125
 40
0.0625
 40
0.0625
 40
0.09375
 40
0.09375
 40
0.125
 40
0.125
 40
0.15625
 40
0.15625
 40
0.1875
 40
0.1875
 40
0.21875
 40
0.21875
 40
0.25
 40
0.25
 40
0.28125
 40
0.28125
 40
0.3125
 40
0.3125
 40
0.34375
 40
0.34375
 40
0.375
 40
0.375
 40
0.40625
 40
0.40625
 40
0.4375
 40
0.4375
 40
0.46875
 40
0.46875
 40
0.5
 40
0.5
 40
0.53125
 40
0.53125
 40
0.5625
 40
0.5625
 40
0.59375
 40
0.59375
 40
0.625
 40
0.625
 40
0.65625
 40
0.65625
 40
0.6875
 40
0.6875
 40
0.71875
 40
0.71875
 40
0.75
 40
0.75
 40
0.78125
 40
0.78125
 40
0.8125
 40
0.8125
 40
0.84375
 40
0.84375
 40
0.875
 40
0.875
 40
0.90625
 40
0.90625
 40
0.9375
 40
0.9375
 40
0.96875
 40
0.96875
 40
1.0
 40
1.0
 40
1.0
 40
1.0
 10
357.9534886347757
 20
323.8671221666233
 30
0.0
 10
357.934802564191
 20
323.8778447200236
 30
0.0
 10
357.9145952466747
 20
323.8873160356075
 30
0.0
 10
357.8712625821836
 20
323.9038593981023
 30
0.0
 10
357.8478629457667
 20
323.910987931589
 30
0.0
 10
357.7994132496464
 20
323.9223472297937
 30
0.0
 10
357.7744799498556
 20
323.9265937508188
 30
0.0
 10
357.7232091407776
 20
323.932248303818
 30
0.0
 10
357.6967052809243
 20
323.9336253847468
 30
0.0
 10
357.6445164361502
 20
323.9333626417915
 30
0.0
 10
357.6185689183708
 20
323.9317699353326
 30
0.0
 10
357.5669747073084
 20
323.9255915375899
 30
0.0
 10
357.541724527939
 20
323.9210269048597
 30
0.0
 10
357.4935846106226
 20
323.9092621167799
 30
0.0
 10
357.4703350280298
 20
323.9019785844098
 30
0.0
 10
357.4265598998388
 20
323.8848427965939
 30
0.0
 10
357.4064115209848
 20
323.8751642337908
 30
0.0
 10
357.369500299687
 20
323.8536443980879
 30
0.0
 10
357.3526000421668
 20
323.8416556996346
 30
0.0
 10
357.3235381869813
 20
323.8163409848115
 30
0.0
 10
357.3112446316042
 20
323.8029855544999
 30
0.0
 10
357.291157162108
 20
323.7748726387665
 30
0.0
 10
357.2834457898606
 20
323.7601206435082
 30
0.0
 10
357.2732613044919
 20
323.7304820041462
 30
0.0
 10
357.2706597382513
 20
323.7154387624937
 30
0.0
 10
357.2706322150412
 20
323.6848875088767
 30
0.0
 10
357.2732165839232
 20
323.669830251037
 30
0.0
 10
357.2833526524556
 20
323.6403065849522
 30
0.0
 10
357.2910207071106
 20
323.6256634584054
 30
0.0
 10
357.3110889878412
 20
323.597714712927
 30
0.0
 10
357.3233685017961
 20
323.5844802769389
 30
0.0
 10
357.3523626572573
 20
323.5594707506855
 30
0.0
 10
357.3692511796496
 20
323.5476338561943
 30
0.0
 10
357.4061548535736
 20
323.5264430853586
 30
0.0
 10
357.4262825904042
 20
323.5169552729728
 30
0.0
 10
357.469957959894
 20
323.5002406312995
 30
0.0
 10
357.4932706195413
 20
323.4931395517606
 30
0.0
 10
357.5413952263808
 20
323.4818067475355
 30
0.0
 10
357.5665471101412
 20
323.4774812337914
 30
0.0
 10
357.6182193935459
 20
323.4717575423555
 30
0.0
 10
357.6441786118689
 20
323.4704040883715
 30
0.0
 10
357.6963357921055
 20
323.4706244157136
 30
0.0
 10
357.7228193483026
 20
323.47224582555
 30
0.0
 10
357.7741524914068
 20
323.4783908847013
 30
0.0
 10
357.7990882964153
 20
323.4828776582295
 30
0.0
 10
357.8474953085845
 20
323.494684014198
 30
0.0
 10
357.8709497427067
 20
323.5020473088132
 30
0.0
 10
357.914324242668
 20
323.5190094925329
 30
0.0
 10
357.9345285192008
 20
323.5286661171713
 30
0.0
 10
357.9718661710162
 20
323.550412835078
 30
0.0
 10
357.9885045135026
 20
323.562230254826
 30
0.0
 10
358.0174994053917
 20
323.5874257733012
 30
0.0
 10
358.0300193257103
 20
323.6009873178667
 30
0.0
 10
358.0501501283331
 20
323.6291497681133
 30
0.0
 10
358.0577276650665
 20
323.6436154236593
 30
0.0
 10
358.0679855233626
 20
323.6733050713173
 30
0.0
 10
358.0706247516511
 20
323.6886607796667
 30
0.0
 10
358.0706668332783
 20
323.7188917817326
 30
0.0
 10
358.0681549085426
 20
323.7338952527884
 30
0.0
 10
358.0579800207668
 20
323.763673336851
 30
0.0
 10
358.0503078347389
 20
323.778303091081
 30
0.0
 10
358.0304192790266
 20
323.806089120066
 30
0.0
 10
358.0181112539875
 20
323.8194352340897
 30
0.0
 10
357.9888333007666
 20
323.8447160601517
 30
0.0
 10
357.9721747053604
 20
323.8563996132229
 30
0.0
 10
357.9534886347757
 20
323.8671221666233
 30
0.0
  0
ARC
  5
1FF
330
1F
100
AcDbEntity
  8
0
  6
Continuous
 62
     7
370
    25
100
AcDbCircle
 10
357.6707401721
 20
322.9436145838
 30
0.0
 40
0.6300290699021444
100
AcDbArc
 50
67.3215235807
 51
113.0121052314
  0
LINE
  5
200
330
1F
100
AcDbEntity
  8
0
  6
Continuous
 62
     7
370
    25
100
AcDbLine
 10
382.525449281
 20
404.7651785959
 30
0.0
 11
382.525449281
 21
402.0710318269
 31
0.0
  0
ENDSEC
  0
SECTION
  2
OBJECTS
  0
DICTIONARY
  5
C
330
0
100
AcDbDictionary
281
     1
  3
ACAD_DETAILVIEWSTYLE
350
208
  3
ACAD_GROUP
350
D
  3
ACAD_LAYOUT
350
1A
  3
ACAD_MATERIAL
350
43
  3
ACAD_MLEADERSTYLE
350
6B
  3
ACAD_MLINESTYLE
350
17
  3
ACAD_PLOTSETTINGS
350
19
  3
ACAD_PLOTSTYLENAME
350
E
  3
ACAD_SCALELIST
350
47
  3
ACAD_SECTIONVIEWSTYLE
350
209
  3
ACAD_TABLESTYLE
350
69
  3
ACAD_VISUALSTYLE
350
2A
  3
ACDB_RECOMPOSE_DATA
350
205
  3
AcDbVariableDictionary
350
201
  0
SUN
  5
6D
330
29
100
AcDbSun
 90
        1
290
     0
 63
     7
421
 16777215
 40
1.0
291
     1
 91
  2455826
 92
 54000000
292
     0
 70
     2
 71
   256
280
     1
  0
DICTIONARY
  5
208
102
{ACAD_REACTORS
330
C
102
}
330
C
100
AcDbDictionary
281
     1
  0
DICTIONARY
  5
D
102
{ACAD_REACTORS
330
C
102
}
330
C
100
AcDbDictionary
281
     1
  0
DICTIONARY
  5
1A
102
{ACAD_REACTORS
330
C
102
}
330
C
100
AcDbDictionary
281
     1
  3
Layout1
350
1E
  3
Layout2
350
26
  3
Model
350
22
  0
DICTIONARY
  5
43
102
{ACAD_REACTORS
330
C
102
}
330
C
100
AcDbDictionary
281
     1
  3
ByBlock
350
45
  3
ByLayer
350
44
  3
Global
350
46
  0
DICTIONARY
  5
6B
102
{ACAD_REACTORS
330
C
102
}
330
C
100
AcDbDictionary
281
     1
  3
Standard
350
6C
  0
DICTIONARY
  5
17
102
{ACAD_REACTORS
330
C
102
}
330
C
100
AcDbDictionary
281
     1
  3
Standard
350
18
  0
DICTIONARY
  5
19
102
{ACAD_REACTORS
330
C
102
}
330
C
100
AcDbDictionary
281
     1
  0
ACDBDICTIONARYWDFLT
  5
E
102
{ACAD_REACTORS
330
C
102
}
330
C
100
AcDbDictionary
281
     1
  3
Normal
350
F
100
AcDbDictionaryWithDefault
340
F
  0
DICTIONARY
  5
47
102
{ACAD_REACTORS
330
C
102
}
330
C
100
AcDbDictionary
281
     1
  3
A0
350
48
  3
A1
350
49
  3
A2
350
4A
  3
A3
350
4B
  3
A4
350
4C
  3
A5
350
4D
  3
A6
350
4E
  3
A7
350
4F
  3
A8
350
50
  3
A9
350
51
  3
B0
350
52
  3
B1
350
53
  3
B2
350
54
  3
B3
350
55
  3
B4
350
56
  3
B5
350
57
  3
B6
350
58
  3
B7
350
59
  3
B8
350
5A
  3
B9
350
5B
  3
C0
350
5C
  3
C1
350
5D
  3
C2
350
5E
  3
C3
350
5F
  3
C4
350
60
  3
C5
350
61
  3
C6
350
62
  3
C7
350
63
  3
C8
350
64
  3
C9
350
65
  3
D0
350
66
  3
D1
350
67
  3
D2
350
68
  0
DICTIONARY
  5
209
102
{ACAD_REACTORS
330
C
102
}
330
C
100
AcDbDictionary
281
     1
  0
DICTIONARY
  5
69
102
{ACAD_REACTORS
330
C
102
}
330
C
100
AcDbDictionary
281
     1
  3
Standard
350
6A
  0
DICTIONARY
  5
2A
102
{ACAD_REACTORS
330
C
102
}
330
C
100
AcDbDictionary
281
     1
  3
2dWireframe
350
2F
  3
Basic
350
32
  3
Brighten
350
36
  3
ColorChange
350
3A
  3
Conceptual
350
34
  3
Dim
350
35
  3
EdgeColorOff
350
3D
  3
Facepattern
350
39
  3
Flat
350
2B
  3
FlatWithEdges
350
2C
  3
Gouraud
350
2D
  3
GouraudWithEdges
350
2E
  3
Hidden
350
31
  3
JitterOff
350
3B
  3
Linepattern
350
38
  3
OverhangOff
350
3C
  3
Realistic
350
33
  3
Shaded
350
42
  3
Shaded with edges
350
41
  3
Shades of Gray
350
3E
  3
Sketchy
350
3F
  3
Thicken
350
37
  3
Wireframe
350
30
  3
X-Ray
350
40
  0
XRECORD
  5
205
102
{ACAD_REACTORS
330
C
102
}
330
C
100
AcDbXrecord
280
     1
 90
        1
330
6A
  0
DICTIONARY
  5
201
102
{ACAD_REACTORS
330
C
102
}
330
C
100
AcDbDictionary
281
     1
  3
CANNOSCALE
350
202
  3
CMLEADERSTYLE
350
207
  3
CTABLESTYLE
350
206
  3
SECTIONTHICKNESSINC
350
20A
  0
LAYOUT
  5
1E
102
{ACAD_REACTORS
330
1A
102
}
330
1A
100
AcDbPlotSettings
  1

  2
none_device
  4

  6

 40
0.0
 41
0.0
 42
0.0
 43
0.0
 44
0.0
 45
0.0
 46
0.0
 47
0.0
 48
0.0
 49
0.0
140
0.0
141
0.0
142
1.0
143
1.0
 70
   688
 72
     1
 73
     0
 74
     5
  7

 75
    16
 76
     0
 77
     2
 78
   300
147
1.0
148
0.0
149
0.0
100
AcDbLayout
  1
Layout1
 70
     1
 71
     1
 10
0.0
 20
0.0
 11
420.0
 21
297.0
 12
0.0
 22
0.0
 32
0.0
 14
1.0000000000E+20
 24
1.0000000000E+20
 34
1.0000000000E+20
 15
-1.0000000000E+20
 25
-1.0000000000E+20
 35
-1.0000000000E+20
146
0.0
 13
0.0
 23
0.0
 33
0.0
 16
1.0
 26
0.0
 36
0.0
 17
0.0
 27
1.0
 37
0.0
 76
     0
330
1B
  0
LAYOUT
  5
26
102
{ACAD_REACTORS
330
1A
102
}
330
1A
100
AcDbPlotSettings
  1

  2
none_device
  4

  6

 40
0.0
 41
0.0
 42
0.0
 43
0.0
 44
0.0
 45
0.0
 46
0.0
 47
0.0
 48
0.0
 49
0.0
140
0.0
141
0.0
142
1.0
143
1.0
 70
   688
 72
     1
 73
     0
 74
     5
  7

 75
    16
 76
     0
 77
     2
 78
   300
147
1.0
148
0.0
149
0.0
100
AcDbLayout
  1
Layout2
 70
     1
 71
     2
 10
0.0
 20
0.0
 11
0.0
 21
0.0
 12
0.0
 22
0.0
 32
0.0
 14
0.0
 24
0.0
 34
0.0
 15
0.0
 25
0.0
 35
0.0
146
0.0
 13
0.0
 23
0.0
 33
0.0
 16
1.0
 26
0.0
 36
0.0
 17
0.0
 27
1.0
 37
0.0
 76
     0
330
23
  0
LAYOUT
  5
22
102
{ACAD_REACTORS
330
1A
102
}
330
1A
100
AcDbPlotSettings
  1

  2
none_device
  4
Letter_(8.50_x_11.00_Inches)
  6

 40
6.35
 41
6.35
 42
6.35000508
 43
6.35000508
 44
215.9
 45
279.4
 46
0.0
 47
0.0
 48
0.0
 49
0.0
140
0.0
141
0.0
142
1.0
143
1.0
 70
  1712
 72
     1
 73
     0
 74
     0
  7

 75
     0
 76
     0
 77
     2
 78
   300
147
1.0
148
0.0
149
0.0
100
AcDbLayout
  1
Model
 70
     1
 71
     0
 10
0.0
 20
0.0
 11
594.0
 21
420.0
 12
0.0
 22
0.0
 32
0.0
 14
0.0
 24
0.0
 34
0.0
 15
594.0
 25
420.0
 35
0.0
146
0.0
 13
0.0
 23
0.0
 33
0.0
 16
1.0
 26
0.0
 36
0.0
 17
0.0
 27
1.0
 37
0.0
 76
     0
330
1F
331
29
  0
MATERIAL
  5
45
102
{ACAD_REACTORS
330
43
102
}
330
43
100
AcDbMaterial
  1
ByBlock
 72
     1
 94
      127
  0
MATERIAL
  5
44
102
{ACAD_REACTORS
330
43
102
}
330
43
100
AcDbMaterial
  1
ByLayer
 72
     1
 94
      127
  0
MATERIAL
  5
46
102
{ACAD_REACTORS
330
43
102
}
330
43
100
AcDbMaterial
  1
Global
 72
     1
 94
      127
  0
MLEADERSTYLE
  5
6C
102
{ACAD_REACTORS
330
6B
102
}
330
6B
100
AcDbMLeaderStyle
179
     2
170
     2
171
     1
172
     0
 90
        2
 40
0.0
 41
0.0
173
     1
 91
-1056964608
340
14
 92
       -2
290
     1
 42
2.0
291
     1
 43
8.0
  3
Standard
341
0
 44
4.0
300

342
11
174
     1
178
     6
175
     1
176
     0
 93
-1056964608
 45
4.0
292
     0
297
     0
 46
4.0
343
0
 94
-1056964608
 47
1.0
 49
1.0
140
1.0
293
     1
141
0.0
294
     1
177
     0
142
1.0
295
     0
296
     0
143
3.75
271
     0
272
     9
273
     9
298
     0
  0
MLINESTYLE
  5
18
102
{ACAD_REACTORS
330
17
102
}
330
17
100
AcDbMlineStyle
  2
Standard
 70
     0
  3

 62
   256
 51
90.0
 52
90.0
 71
     2
 49
0.5
 62
   256
  6
BYLAYER
 49
-0.5
 62
   256
  6
BYLAYER
  0
ACDBPLACEHOLDER
  5
F
102
{ACAD_REACTORS
330
E
102
}
330
E
  0
SCALE
  5
48
102
{ACAD_REACTORS
330
47
102
}
330
47
100
AcDbScale
 70
     0
300
1:1
140
1.0
141
1.0
290
     1
  0
SCALE
  5
49
102
{ACAD_REACTORS
330
47
102
}
330
47
100
AcDbScale
 70
     0
300
1:2
140
1.0
141
2.0
290
     0
  0
SCALE
  5
4A
102
{ACAD_REACTORS
330
47
102
}
330
47
100
AcDbScale
 70
     0
300
1:4
140
1.0
141
4.0
290
     0
  0
SCALE
  5
4B
102
{ACAD_REACTORS
330
47
102
}
330
47
100
AcDbScale
 70
     0
300
1:5
140
1.0
141
5.0
290
     0
  0
SCALE
  5
4C
102
{ACAD_REACTORS
330
47
102
}
330
47
100
AcDbScale
 70
     0
300
1:8
140
1.0
141
8.0
290
     0
  0
SCALE
  5
4D
102
{ACAD_REACTORS
330
47
102
}
330
47
100
AcDbScale
 70
     0
300
1:10
140
1.0
141
10.0
290
     0
  0
SCALE
  5
4E
102
{ACAD_REACTORS
330
47
102
}
330
47
100
AcDbScale
 70
     0
300
1:16
140
1.0
141
16.0
290
     0
  0
SCALE
  5
4F
102
{ACAD_REACTORS
330
47
102
}
330
47
100
AcDbScale
 70
     0
300
1:20
140
1.0
141
20.0
290
     0
  0
SCALE
  5
50
102
{ACAD_REACTORS
330
47
102
}
330
47
100
AcDbScale
 70
     0
300
1:30
140
1.0
141
30.0
290
     0
  0
SCALE
  5
51
102
{ACAD_REACTORS
330
47
102
}
330
47
100
AcDbScale
 70
     0
300
1:40
140
1.0
141
40.0
290
     0
  0
SCALE
  5
52
102
{ACAD_REACTORS
330
47
102
}
330
47
100
AcDbScale
 70
     0
300
1:50
140
1.0
141
50.0
290
     0
  0
SCALE
  5
53
102
{ACAD_REACTORS
330
47
102
}
330
47
100
AcDbScale
 70
     0
300
1:100
140
1.0
141
100.0
290
     0
  0
SCALE
  5
54
102
{ACAD_REACTORS
330
47
102
}
330
47
100
AcDbScale
 70
     0
300
2:1
140
2.0
141
1.0
290
     0
  0
SCALE
  5
55
102
{ACAD_REACTORS
330
47
102
}
330
47
100
AcDbScale
 70
     0
300
4:1
140
4.0
141
1.0
290
     0
  0
SCALE
  5
56
102
{ACAD_REACTORS
330
47
102
}
330
47
100
AcDbScale
 70
     0
300
8:1
140
8.0
141
1.0
290
     0
  0
SCALE
  5
57
102
{ACAD_REACTORS
330
47
102
}
330
47
100
AcDbScale
 70
     0
300
10:1
140
10.0
141
1.0
290
     0
  0
SCALE
  5
58
102
{ACAD_REACTORS
330
47
102
}
330
47
100
AcDbScale
 70
     0
300
100:1
140
100.0
141
1.0
290
     0
  0
SCALE
  5
59
102
{ACAD_REACTORS
330
47
102
}
330
47
100
AcDbScale
 70
     0
300
1/128" = 1'-0"
140
0.0078125
141
12.0
290
     0
  0
SCALE
  5
5A
102
{ACAD_REACTORS
330
47
102
}
330
47
100
AcDbScale
 70
     0
300
1/64" = 1'-0"
140
0.015625
141
12.0
290
     0
  0
SCALE
  5
5B
102
{ACAD_REACTORS
330
47
102
}
330
47
100
AcDbScale
 70
     0
300
1/32" = 1'-0"
140
0.03125
141
12.0
290
     0
  0
SCALE
  5
5C
102
{ACAD_REACTORS
330
47
102
}
330
47
100
AcDbScale
 70
     0
300
1/16" = 1'-0"
140
0.0625
141
12.0
290
     0
  0
SCALE
  5
5D
102
{ACAD_REACTORS
330
47
102
}
330
47
100
AcDbScale
 70
     0
300
3/32" = 1'-0"
140
0.09375
141
12.0
290
     0
  0
SCALE
  5
5E
102
{ACAD_REACTORS
330
47
102
}
330
47
100
AcDbScale
 70
     0
300
1/8" = 1'-0"
140
0.125
141
12.0
290
     0
  0
SCALE
  5
5F
102
{ACAD_REACTORS
330
47
102
}
330
47
100
AcDbScale
 70
     0
300
3/16" = 1'-0"
140
0.1875
141
12.0
290
     0
  0
SCALE
  5
60
102
{ACAD_REACTORS
330
47
102
}
330
47
100
AcDbScale
 70
     0
300
1/4" = 1'-0"
140
0.25
141
12.0
290
     0
  0
SCALE
  5
61
102
{ACAD_REACTORS
330
47
102
}
330
47
100
AcDbScale
 70
     0
300
3/8" = 1'-0"
140
0.375
141
12.0
290
     0
  0
SCALE
  5
62
102
{ACAD_REACTORS
330
47
102
}
330
47
100
AcDbScale
 70
     0
300
1/2" = 1'-0"
140
0.5
141
12.0
290
     0
  0
SCALE
  5
63
102
{ACAD_REACTORS
330
47
102
}
330
47
100
AcDbScale
 70
     0
300
3/4" = 1'-0"
140
0.75
141
12.0
290
     0
  0
SCALE
  5
64
102
{ACAD_REACTORS
330
47
102
}
330
47
100
AcDbScale
 70
     0
300
1" = 1'-0"
140
1.0
141
12.0
290
     0
  0
SCALE
  5
65
102
{ACAD_REACTORS
330
47
102
}
330
47
100
AcDbScale
 70
     0
300
1-1/2" = 1'-0"
140
1.5
141
12.0
290
     0
  0
SCALE
  5
66
102
{ACAD_REACTORS
330
47
102
}
330
47
100
AcDbScale
 70
     0
300
3" = 1'-0"
140
3.0
141
12.0
290
     0
  0
SCALE
  5
67
102
{ACAD_REACTORS
330
47
102
}
330
47
100
AcDbScale
 70
     0
300
6" = 1'-0"
140
6.0
141
12.0
290
     0
  0
SCALE
  5
68
102
{ACAD_REACTORS
330
47
102
}
330
47
100
AcDbScale
 70
     0
300
1'-0" = 1'-0"
140
12.0
141
12.0
290
     0
  0
TABLESTYLE
  5
6A
102
{ACAD_REACTORS
330
69
102
}
102
{ACAD_XDICTIONARY
360
203
102
}
330
69
100
AcDbTableStyle
  3
Standard
 70
     0
 71
     0
 40
0.06
 41
0.06
280
     0
281
     0
  7
Standard
140
4.5
170
     2
 62
     0
 63
   257
283
     0
 90
        4
 91
        0
  1

274
    -2
284
     1
 64
     0
275
    -2
285
     1
 65
     0
276
    -2
286
     1
 66
     0
277
    -2
287
     1
 67
     0
278
    -2
288
     1
 68
     0
279
    -2
289
     1
 69
     0
  7
Standard
140
6.0
170
     5
 62
     0
 63
   257
283
     0
 90
        4
 91
        0
  1

274
    -2
284
     1
 64
     0
275
    -2
285
     1
 65
     0
276
    -2
286
     1
 66
     0
277
    -2
287
     1
 67
     0
278
    -2
288
     1
 68
     0
279
    -2
289
     1
 69
     0
  7
Standard
140
4.5
170
     5
 62
     0
 63
   257
283
     0
 90
        4
 91
        0
  1

274
    -2
284
     1
 64
     0
275
    -2
285
     1
 65
     0
276
    -2
286
     1
 66
     0
277
    -2
287
     1
 67
     0
278
    -2
288
     1
 68
     0
279
    -2
289
     1
 69
     0
  0
VISUALSTYLE
  5
2F
102
{ACAD_REACTORS
330
2A
102
}
330
2A
100
AcDbVisualStyle
  2
2dWireframe
 70
     4
177
     3
291
     0
 70
    58
 90
        0
176
     1
 90
        2
176
     1
 90
        0
176
     1
 90
        0
176
     1
 40
0.6
176
     1
 40
30.0
176
     1
 62
     7
420
 16777215
176
     1
 90
        1
176
     1
 90
        4
176
     1
 62
     7
176
     1
 62
   257
176
     1
 90
        1
176
     1
 90
        1
176
     1
 40
1.0
176
     1
 90
        0
176
     1
 62
   257
176
     1
 40
1.0
176
     1
 90
        1
176
     1
 90
        6
176
     1
 90
        2
176
     1
 62
     7
176
     1
 90
        5
176
     1
 90
        0
176
     1
 90
        0
176
     1
290
     0
176
     1
 90
        1
176
     1
 40
0.0
176
     1
 90
        0
176
     1
290
     1
176
     1
290
     1
176
     1
290
     0
176
     1
290
     0
176
     1
290
     0
176
     1
290
     0
176
     1
290
     0
176
     1
290
     0
176
     1
290
     0
176
     1
 90
       50
176
     1
 40
0.0
176
     1
 40
1.0
176
     1
 90
        0
176
     1
 62
    18
420
        0
176
     1
 90
       50
176
     1
 90
        3
176
     1
 62
     5
420
      255
176
     1
290
     0
176
     1
 90
       50
176
     1
 90
       50
176
     1
 90
       50
176
     1
290
     0
176
     1
 90
       50
176
     1
 62
   256
176
     0
 40
1.0
176
     0
 90
        2
176
     1
  1
strokes_ogs.tif
176
     1
290
     0
176
     1
 40
1.0
176
     1
 40
1.0
176
     1
  0
VISUALSTYLE
  5
32
102
{ACAD_REACTORS
330
2A
102
}
330
2A
100
AcDbVisualStyle
  2
Basic
 70
     7
177
     3
291
     1
 70
    58
 90
        1
176
     1
 90
        0
176
     1
 90
        1
176
     1
 90
        0
176
     1
 40
0.6
176
     1
 40
30.0
176
     1
 62
     7
420
 16777215
176
     1
 90
        0
176
     1
 90
        4
176
     1
 62
     7
176
     1
 62
   257
176
     1
 90
        1
176
     1
 90
        1
176
     1
 40
1.0
176
     1
 90
        8
176
     1
 62
     7
176
     1
 40
1.0
176
     1
 90
        1
176
     1
 90
        6
176
     1
 90
        2
176
     1
 62
     7
176
     1
 90
        5
176
     1
 90
        0
176
     1
 90
        0
176
     1
290
     0
176
     1
 90
        1
176
     1
 40
0.0
176
     1
 90
        0
176
     1
290
     0
176
     1
290
     1
176
     1
290
     1
176
     1
290
     0
176
     1
290
     0
176
     1
290
     0
176
     1
290
     0
176
     1
290
     0
176
     1
290
     0
176
     1
 90
       50
176
     1
 40
0.0
176
     1
 40
1.0
176
     1
 90
        0
176
     1
 62
    18
420
        0
176
     1
 90
       50
176
     1
 90
        3
176
     1
 62
     5
420
      255
176
     1
290
     0
176
     1
 90
       50
176
     1
 90
       50
176
     1
 90
       50
176
     1
290
     0
176
     1
 90
       50
176
     1
 62
   256
176
     0
 40
1.0
176
     0
 90
        2
176
     1
  1
strokes_ogs.tif
176
     1
290
     0
176
     1
 40
1.0
176
     1
 40
1.0
176
     1
  0
VISUALSTYLE
  5
36
102
{ACAD_REACTORS
330
2A
102
}
330
2A
100
AcDbVisualStyle
  2
Brighten
 70
    12
177
     3
291
     1
 70
    58
 90
        2
176
     1
 90
        2
176
     1
 90
        0
176
     1
 90
        0
176
     1
 40
0.6
176
     1
 40
30.0
176
     1
 62
     7
420
 16777215
176
     1
 90
        1
176
     1
 90
        4
176
     1
 62
     7
176
     1
 62
   257
176
     1
 90
        1
176
     1
 90
        1
176
     1
 40
1.0
176
     1
 90
        8
176
     1
 62
     7
176
     1
 40
1.0
176
     1
 90
        1
176
     1
 90
        6
176
     1
 90
        2
176
     1
 62
     7
176
     1
 90
        5
176
     1
 90
        0
176
     1
 90
        0
176
     1
290
     0
176
     1
 90
        1
176
     1
 40
50.0
176
     1
 90
        0
176
     1
290
     0
176
     1
290
     1
176
     1
290
     1
176
     1
290
     0
176
     1
290
     0
176
     1
290
     0
176
     1
290
     0
176
     1
290
     0
176
     1
290
     0
176
     1
 90
       50
176
     1
 40
0.0
176
     1
 40
1.0
176
     1
 90
        0
176
     1
 62
    18
420
        0
176
     1
 90
       50
176
     1
 90
        3
176
     1
 62
     5
420
      255
176
     1
290
     0
176
     1
 90
       50
176
     1
 90
       50
176
     1
 90
       50
176
     1
290
     0
176
     1
 90
       50
176
     1
 62
   256
176
     0
 40
1.0
176
     0
 90
        2
176
     1
  1
strokes_ogs.tif
176
     1
290
     0
176
     1
 40
1.0
176
     1
 40
1.0
176
     1
  0
VISUALSTYLE
  5
3A
102
{ACAD_REACTORS
330
2A
102
}
330
2A
100
AcDbVisualStyle
  2
ColorChange
 70
    16
177
     3
291
     1
 70
    58
 90
        2
176
     1
 90
        2
176
     1
 90
        3
176
     1
 90
        0
176
     1
 40
0.6
176
     1
 40
30.0
176
     1
 62
     8
420
  8421504
176
     1
 90
        1
176
     1
 90
        4
176
     1
 62
     7
176
     1
 62
   257
176
     1
 90
        1
176
     1
 90
        1
176
     1
 40
1.0
176
     1
 90
        8
176
     1
 62
     8
420
  8421504
176
     1
 40
1.0
176
     1
 90
        1
176
     1
 90
        6
176
     1
 90
        2
176
     1
 62
     7
176
     1
 90
        5
176
     1
 90
        0
176
     1
 90
        0
176
     1
290
     0
176
     1
 90
        1
176
     1
 40
0.0
176
     1
 90
        0
176
     1
290
     0
176
     1
290
     1
176
     1
290
     1
176
     1
290
     0
176
     1
290
     0
176
     1
290
     0
176
     1
290
     0
176
     1
290
     0
176
     1
290
     0
176
     1
 90
       50
176
     1
 40
0.0
176
     1
 40
1.0
176
     1
 90
        0
176
     1
 62
    18
420
        0
176
     1
 90
       50
176
     1
 90
        3
176
     1
 62
     5
420
      255
176
     1
290
     0
176
     1
 90
       50
176
     1
 90
       50
176
     1
 90
       50
176
     1
290
     0
176
     1
 90
       50
176
     1
 62
   256
176
     0
 40
1.0
176
     0
 90
        2
176
     1
  1
strokes_ogs.tif
176
     1
290
     0
176
     1
 40
1.0
176
     1
 40
1.0
176
     1
  0
VISUALSTYLE
  5
34
102
{ACAD_REACTORS
330
2A
102
}
330
2A
100
AcDbVisualStyle
  2
Conceptual
 70
     9
177
     3
291
     0
 70
    58
 90
        3
176
     1
 90
        2
176
     1
 90
        0
176
     1
 90
        0
176
     1
 40
0.6
176
     1
 40
30.0
176
     1
 62
     7
420
 16777215
176
     1
 90
        2
176
     1
 90
        2
176
     1
 62
     7
176
     1
 62
   257
176
     1
 90
        1
176
     1
 90
        1
176
     1
 40
179.0
176
     1
 90
        8
176
     1
 62
     7
176
     1
 40
1.0
176
     1
 90
        1
176
     1
 90
        6
176
     1
 90
        2
176
     1
 62
     7
176
     1
 90
        3
176
     1
 90
        0
176
     1
 90
        0
176
     1
290
     0
176
     1
 90
        1
176
     1
 40
0.0
176
     1
 90
        0
176
     1
290
     0
176
     1
290
     1
176
     1
290
     1
176
     1
290
     0
176
     1
290
     0
176
     1
290
     0
176
     1
290
     0
176
     1
290
     0
176
     1
290
     0
176
     1
 90
       50
176
     1
 40
0.0
176
     1
 40
1.0
176
     1
 90
        0
176
     1
 62
    18
420
        0
176
     1
 90
       50
176
     1
 90
        3
176
     1
 62
     5
420
      255
176
     1
290
     0
176
     1
 90
       50
176
     1
 90
       50
176
     1
 90
       50
176
     1
290
     0
176
     1
 90
       50
176
     1
 62
   256
176
     0
 40
1.0
176
     0
 90
        2
176
     1
  1
strokes_ogs.tif
176
     1
290
     0
176
     1
 40
1.0
176
     1
 40
1.0
176
     1
  0
VISUALSTYLE
  5
35
102
{ACAD_REACTORS
330
2A
102
}
330
2A
100
AcDbVisualStyle
  2
Dim
 70
    11
177
     3
291
     1
 70
    58
 90
        2
176
     1
 90
        2
176
     1
 90
        0
176
     1
 90
        0
176
     1
 40
0.6
176
     1
 40
30.0
176
     1
 62
     7
420
 16777215
176
     1
 90
        1
176
     1
 90
        4
176
     1
 62
     7
176
     1
 62
   257
176
     1
 90
        1
176
     1
 90
        1
176
     1
 40
1.0
176
     1
 90
        8
176
     1
 62
     7
176
     1
 40
1.0
176
     1
 90
        1
176
     1
 90
        6
176
     1
 90
        2
176
     1
 62
     7
176
     1
 90
        5
176
     1
 90
        0
176
     1
 90
        0
176
     1
290
     0
176
     1
 90
        1
176
     1
 40
-50.0
176
     1
 90
        0
176
     1
290
     0
176
     1
290
     1
176
     1
290
     1
176
     1
290
     0
176
     1
290
     0
176
     1
290
     0
176
     1
290
     0
176
     1
290
     0
176
     1
290
     0
176
     1
 90
       50
176
     1
 40
0.0
176
     1
 40
1.0
176
     1
 90
        0
176
     1
 62
    18
420
        0
176
     1
 90
       50
176
     1
 90
        3
176
     1
 62
     5
420
      255
176
     1
290
     0
176
     1
 90
       50
176
     1
 90
       50
176
     1
 90
       50
176
     1
290
     0
176
     1
 90
       50
176
     1
 62
   256
176
     0
 40
1.0
176
     0
 90
        2
176
     1
  1
strokes_ogs.tif
176
     1
290
     0
176
     1
 40
1.0
176
     1
 40
1.0
176
     1
  0
VISUALSTYLE
  5
3D
102
{ACAD_REACTORS
330
2A
102
}
330
2A
100
AcDbVisualStyle
  2
EdgeColorOff
 70
    22
177
     3
291
     1
 70
    58
 90
        2
176
     0
 90
        2
176
     0
 90
        0
176
     0
 90
        0
176
     0
 40
0.6
176
     0
 40
30.0
176
     0
 62
     7
420
 16777215
176
     0
 90
        1
176
     0
 90
        4
176
     0
 62
     7
176
     0
 62
   257
176
     0
 90
        1
176
     0
 90
        1
176
     0
 40
1.0
176
     0
 90
        8
176
     2
 62
     7
176
     0
 40
1.0
176
     0
 90
        1
176
     0
 90
        6
176
     0
 90
        2
176
     0
 62
     7
176
     0
 90
        5
176
     0
 90
        0
176
     0
 90
        0
176
     0
290
     0
176
     0
 90
        1
176
     0
 40
0.0
176
     0
 90
        0
176
     0
290
     0
176
     0
290
     1
176
     0
290
     1
176
     0
290
     0
176
     0
290
     0
176
     0
290
     0
176
     0
290
     0
176
     0
290
     0
176
     0
290
     0
176
     0
 90
       50
176
     0
 40
0.0
176
     0
 40
1.0
176
     0
 90
        0
176
     0
 62
    18
420
        0
176
     0
 90
       50
176
     0
 90
        3
176
     0
 62
     5
420
      255
176
     0
290
     0
176
     0
 90
       50
176
     0
 90
       50
176
     0
 90
       50
176
     0
290
     0
176
     0
 90
       50
176
     0
 62
   256
176
     0
 40
1.0
176
     0
 90
        2
176
     0
  1
strokes_ogs.tif
176
     0
290
     0
176
     0
 40
1.0
176
     0
 40
1.0
176
     0
  0
VISUALSTYLE
  5
39
102
{ACAD_REACTORS
330
2A
102
}
330
2A
100
AcDbVisualStyle
  2
Facepattern
 70
    15
177
     3
291
     1
 70
    58
 90
        2
176
     1
 90
        2
176
     1
 90
        0
176
     1
 90
        0
176
     1
 40
0.6
176
     1
 40
30.0
176
     1
 62
     7
420
 16777215
176
     1
 90
        1
176
     1
 90
        4
176
     1
 62
     7
176
     1
 62
   257
176
     1
 90
        1
176
     1
 90
        1
176
     1
 40
1.0
176
     1
 90
        8
176
     1
 62
     7
176
     1
 40
1.0
176
     1
 90
        1
176
     1
 90
        6
176
     1
 90
        2
176
     1
 62
     7
176
     1
 90
        5
176
     1
 90
        0
176
     1
 90
        0
176
     1
290
     0
176
     1
 90
        1
176
     1
 40
0.0
176
     1
 90
        0
176
     1
290
     0
176
     1
290
     1
176
     1
290
     1
176
     1
290
     0
176
     1
290
     0
176
     1
290
     0
176
     1
290
     0
176
     1
290
     0
176
     1
290
     0
176
     1
 90
       50
176
     1
 40
0.0
176
     1
 40
1.0
176
     1
 90
        0
176
     1
 62
    18
420
        0
176
     1
 90
       50
176
     1
 90
        3
176
     1
 62
     5
420
      255
176
     1
290
     0
176
     1
 90
       50
176
     1
 90
       50
176
     1
 90
       50
176
     1
290
     0
176
     1
 90
       50
176
     1
 62
   256
176
     0
 40
1.0
176
     0
 90
        2
176
     1
  1
strokes_ogs.tif
176
     1
290
     0
176
     1
 40
1.0
176
     1
 40
1.0
176
     1
  0
VISUALSTYLE
  5
2B
102
{ACAD_REACTORS
330
2A
102
}
330
2A
100
AcDbVisualStyle
  2
Flat
 70
     0
177
     3
291
     1
 70
    58
 90
        2
176
     1
 90
        1
176
     1
 90
        1
176
     1
 90
        2
176
     1
 40
0.6
176
     1
 40
30.0
176
     1
 62
     7
420
 16777215
176
     1
 90
        0
176
     1
 90
        0
176
     1
 62
     7
176
     1
 62
   257
176
     1
 90
        1
176
     1
 90
        1
176
     1
 40
1.0
176
     1
 90
        8
176
     1
 62
     7
176
     1
 40
1.0
176
     1
 90
        1
176
     1
 90
        6
176
     1
 90
        2
176
     1
 62
     7
176
     1
 90
        5
176
     1
 90
        0
176
     1
 90
        0
176
     1
290
     0
176
     1
 90
       13
176
     1
 40
0.0
176
     1
 90
        0
176
     1
290
     0
176
     1
290
     1
176
     1
290
     1
176
     1
290
     0
176
     1
290
     0
176
     1
290
     0
176
     1
290
     0
176
     1
290
     0
176
     1
290
     0
176
     1
 90
       50
176
     1
 40
0.0
176
     1
 40
1.0
176
     1
 90
        0
176
     1
 62
    18
420
        0
176
     1
 90
       50
176
     1
 90
        3
176
     1
 62
     5
420
      255
176
     1
290
     0
176
     1
 90
       50
176
     1
 90
       50
176
     1
 90
       50
176
     1
290
     0
176
     1
 90
       50
176
     1
 62
   256
176
     0
 40
1.0
176
     0
 90
        2
176
     1
  1
strokes_ogs.tif
176
     1
290
     0
176
     1
 40
1.0
176
     1
 40
1.0
176
     1
  0
VISUALSTYLE
  5
2C
102
{ACAD_REACTORS
330
2A
102
}
330
2A
100
AcDbVisualStyle
  2
FlatWithEdges
 70
     1
177
     3
291
     1
 70
    58
 90
        2
176
     1
 90
        1
176
     1
 90
        1
176
     1
 90
        2
176
     1
 40
0.6
176
     1
 40
30.0
176
     1
 62
     7
420
 16777215
176
     1
 90
        1
176
     1
 90
        0
176
     1
 62
     7
176
     1
 62
   257
176
     1
 90
        1
176
     1
 90
        1
176
     1
 40
1.0
176
     1
 90
        0
176
     1
 62
   257
176
     1
 40
1.0
176
     1
 90
        1
176
     1
 90
        6
176
     1
 90
        2
176
     1
 62
     7
176
     1
 90
        5
176
     1
 90
        0
176
     1
 90
        0
176
     1
290
     0
176
     1
 90
       13
176
     1
 40
0.0
176
     1
 90
        0
176
     1
290
     0
176
     1
290
     1
176
     1
290
     1
176
     1
290
     0
176
     1
290
     0
176
     1
290
     0
176
     1
290
     0
176
     1
290
     0
176
     1
290
     0
176
     1
 90
       50
176
     1
 40
0.0
176
     1
 40
1.0
176
     1
 90
        0
176
     1
 62
    18
420
        0
176
     1
 90
       50
176
     1
 90
        3
176
     1
 62
     5
420
      255
176
     1
290
     0
176
     1
 90
       50
176
     1
 90
       50
176
     1
 90
       50
176
     1
290
     0
176
     1
 90
       50
176
     1
 62
   256
176
     0
 40
1.0
176
     0
 90
        2
176
     1
  1
strokes_ogs.tif
176
     1
290
     0
176
     1
 40
1.0
176
     1
 40
1.0
176
     1
  0
VISUALSTYLE
  5
2D
102
{ACAD_REACTORS
330
2A
102
}
330
2A
100
AcDbVisualStyle
  2
Gouraud
 70
     2
177
     3
291
     1
 70
    58
 90
        2
176
     1
 90
        2
176
     1
 90
        1
176
     1
 90
        2
176
     1
 40
0.6
176
     1
 40
30.0
176
     1
 62
     7
420
 16777215
176
     1
 90
        0
176
     1
 90
        0
176
     1
 62
     7
176
     1
 62
   257
176
     1
 90
        1
176
     1
 90
        1
176
     1
 40
1.0
176
     1
 90
        0
176
     1
 62
     7
176
     1
 40
1.0
176
     1
 90
        1
176
     1
 90
        6
176
     1
 90
        2
176
     1
 62
     7
176
     1
 90
        5
176
     1
 90
        0
176
     1
 90
        0
176
     1
290
     0
176
     1
 90
       13
176
     1
 40
0.0
176
     1
 90
        0
176
     1
290
     0
176
     1
290
     1
176
     1
290
     1
176
     1
290
     0
176
     1
290
     0
176
     1
290
     0
176
     1
290
     0
176
     1
290
     0
176
     1
290
     0
176
     1
 90
       50
176
     1
 40
0.0
176
     1
 40
1.0
176
     1
 90
        0
176
     1
 62
    18
420
        0
176
     1
 90
       50
176
     1
 90
        3
176
     1
 62
     5
420
      255
176
     1
290
     0
176
     1
 90
       50
176
     1
 90
       50
176
     1
 90
       50
176
     1
290
     0
176
     1
 90
       50
176
     1
 62
   256
176
     0
 40
1.0
176
     0
 90
        2
176
     1
  1
strokes_ogs.tif
176
     1
290
     0
176
     1
 40
1.0
176
     1
 40
1.0
176
     1
  0
VISUALSTYLE
  5
2E
102
{ACAD_REACTORS
330
2A
102
}
330
2A
100
AcDbVisualStyle
  2
GouraudWithEdges
 70
     3
177
     3
291
     1
 70
    58
 90
        2
176
     1
 90
        2
176
     1
 90
        1
176
     1
 90
        2
176
     1
 40
0.6
176
     1
 40
30.0
176
     1
 62
     7
420
 16777215
176
     1
 90
        1
176
     1
 90
        0
176
     1
 62
     7
176
     1
 62
   257
176
     1
 90
        1
176
     1
 90
        1
176
     1
 40
1.0
176
     1
 90
        0
176
     1
 62
   257
176
     1
 40
1.0
176
     1
 90
        1
176
     1
 90
        6
176
     1
 90
        2
176
     1
 62
     7
176
     1
 90
        5
176
     1
 90
        0
176
     1
 90
        0
176
     1
290
     0
176
     1
 90
       13
176
     1
 40
0.0
176
     1
 90
        0
176
     1
290
     0
176
     1
290
     1
176
     1
290
     1
176
     1
290
     0
176
     1
290
     0
176
     1
290
     0
176
     1
290
     0
176
     1
290
     0
176
     1
290
     0
176
     1
 90
       50
176
     1
 40
0.0
176
     1
 40
1.0
176
     1
 90
        0
176
     1
 62
    18
420
        0
176
     1
 90
       50
176
     1
 90
        3
176
     1
 62
     5
420
      255
176
     1
290
     0
176
     1
 90
       50
176
     1
 90
       50
176
     1
 90
       50
176
     1
290
     0
176
     1
 90
       50
176
     1
 62
   256
176
     0
 40
1.0
176
     0
 90
        2
176
     1
  1
strokes_ogs.tif
176
     1
290
     0
176
     1
 40
1.0
176
     1
 40
1.0
176
     1
  0
VISUALSTYLE
  5
31
102
{ACAD_REACTORS
330
2A
102
}
330
2A
100
AcDbVisualStyle
  2
Hidden
 70
     6
177
     3
291
     0
 70
    58
 90
        1
176
     1
 90
        2
176
     1
 90
        2
176
     1
 90
        0
176
     1
 40
0.6
176
     1
 40
30.0
176
     1
 62
     7
420
 16777215
176
     1
 90
        2
176
     1
 90
        2
176
     1
 62
     7
176
     1
 62
   257
176
     1
 90
        2
176
     1
 90
        1
176
     1
 40
40.0
176
     1
 90
        0
176
     1
 62
   257
176
     1
 40
1.0
176
     1
 90
        1
176
     1
 90
        6
176
     1
 90
        2
176
     1
 62
     7
176
     1
 90
        3
176
     1
 90
        0
176
     1
 90
        0
176
     1
290
     0
176
     1
 90
        1
176
     1
 40
0.0
176
     1
 90
        0
176
     1
290
     0
176
     1
290
     1
176
     1
290
     1
176
     1
290
     0
176
     1
290
     0
176
     1
290
     0
176
     1
290
     0
176
     1
290
     0
176
     1
290
     0
176
     1
 90
       50
176
     1
 40
0.0
176
     1
 40
1.0
176
     1
 90
        0
176
     1
 62
    18
420
        0
176
     1
 90
       50
176
     1
 90
        3
176
     1
 62
     5
420
      255
176
     1
290
     0
176
     1
 90
       50
176
     1
 90
       50
176
     1
 90
       50
176
     1
290
     0
176
     1
 90
       50
176
     1
 62
   256
176
     0
 40
1.0
176
     0
 90
        2
176
     1
  1
strokes_ogs.tif
176
     1
290
     0
176
     1
 40
1.0
176
     1
 40
1.0
176
     1
  0
VISUALSTYLE
  5
3B
102
{ACAD_REACTORS
330
2A
102
}
330
2A
100
AcDbVisualStyle
  2
JitterOff
 70
    20
177
     3
291
     1
 70
    58
 90
        2
176
     0
 90
        2
176
     0
 90
        0
176
     0
 90
        0
176
     0
 40
0.6
176
     0
 40
30.0
176
     0
 62
     7
420
 16777215
176
     0
 90
        1
176
     0
 90
        4
176
     0
 62
     7
176
     0
 62
   257
176
     0
 90
        1
176
     0
 90
        1
176
     0
 40
1.0
176
     0
 90
       10
176
     2
 62
     7
176
     0
 40
1.0
176
     0
 90
        1
176
     0
 90
        6
176
     0
 90
        2
176
     0
 62
     7
176
     0
 90
        5
176
     0
 90
        0
176
     0
 90
        0
176
     0
290
     0
176
     0
 90
        1
176
     0
 40
0.0
176
     0
 90
        0
176
     0
290
     0
176
     0
290
     1
176
     0
290
     1
176
     0
290
     0
176
     0
290
     0
176
     0
290
     0
176
     0
290
     0
176
     0
290
     0
176
     0
290
     0
176
     0
 90
       50
176
     0
 40
0.0
176
     0
 40
1.0
176
     0
 90
        0
176
     0
 62
    18
420
        0
176
     0
 90
       50
176
     0
 90
        3
176
     0
 62
     5
420
      255
176
     0
290
     0
176
     0
 90
       50
176
     0
 90
       50
176
     0
 90
       50
176
     0
290
     0
176
     0
 90
       50
176
     0
 62
   256
176
     0
 40
1.0
176
     0
 90
        2
176
     0
  1
strokes_ogs.tif
176
     0
290
     0
176
     0
 40
1.0
176
     0
 40
1.0
176
     0
  0
VISUALSTYLE
  5
38
102
{ACAD_REACTORS
330
2A
102
}
330
2A
100
AcDbVisualStyle
  2
Linepattern
 70
    14
177
     3
291
     1
 70
    58
 90
        2
176
     1
 90
        2
176
     1
 90
        0
176
     1
 90
        0
176
     1
 40
0.6
176
     1
 40
30.0
176
     1
 62
     7
420
 16777215
176
     1
 90
        1
176
     1
 90
        4
176
     1
 62
     7
176
     1
 62
   257
176
     1
 90
        7
176
     1
 90
        7
176
     1
 40
1.0
176
     1
 90
        8
176
     1
 62
     7
176
     1
 40
1.0
176
     1
 90
        1
176
     1
 90
        6
176
     1
 90
        2
176
     1
 62
     7
176
     1
 90
        5
176
     1
 90
        0
176
     1
 90
        0
176
     1
290
     0
176
     1
 90
        1
176
     1
 40
0.0
176
     1
 90
        0
176
     1
290
     0
176
     1
290
     1
176
     1
290
     1
176
     1
290
     0
176
     1
290
     0
176
     1
290
     0
176
     1
290
     0
176
     1
290
     0
176
     1
290
     0
176
     1
 90
       50
176
     1
 40
0.0
176
     1
 40
1.0
176
     1
 90
        0
176
     1
 62
    18
420
        0
176
     1
 90
       50
176
     1
 90
        3
176
     1
 62
     5
420
      255
176
     1
290
     0
176
     1
 90
       50
176
     1
 90
       50
176
     1
 90
       50
176
     1
290
     0
176
     1
 90
       50
176
     1
 62
   256
176
     0
 40
1.0
176
     0
 90
        2
176
     1
  1
strokes_ogs.tif
176
     1
290
     0
176
     1
 40
1.0
176
     1
 40
1.0
176
     1
  0
VISUALSTYLE
  5
3C
102
{ACAD_REACTORS
330
2A
102
}
330
2A
100
AcDbVisualStyle
  2
OverhangOff
 70
    21
177
     3
291
     1
 70
    58
 90
        2
176
     0
 90
        2
176
     0
 90
        0
176
     0
 90
        0
176
     0
 40
0.6
176
     0
 40
30.0
176
     0
 62
     7
420
 16777215
176
     0
 90
        1
176
     0
 90
        4
176
     0
 62
     7
176
     0
 62
   257
176
     0
 90
        1
176
     0
 90
        1
176
     0
 40
1.0
176
     0
 90
        9
176
     2
 62
     7
176
     0
 40
1.0
176
     0
 90
        1
176
     0
 90
        6
176
     0
 90
        2
176
     0
 62
     7
176
     0
 90
        5
176
     0
 90
        0
176
     0
 90
        0
176
     0
290
     0
176
     0
 90
        1
176
     0
 40
0.0
176
     0
 90
        0
176
     0
290
     0
176
     0
290
     1
176
     0
290
     1
176
     0
290
     0
176
     0
290
     0
176
     0
290
     0
176
     0
290
     0
176
     0
290
     0
176
     0
290
     0
176
     0
 90
       50
176
     0
 40
0.0
176
     0
 40
1.0
176
     0
 90
        0
176
     0
 62
    18
420
        0
176
     0
 90
       50
176
     0
 90
        3
176
     0
 62
     5
420
      255
176
     0
290
     0
176
     0
 90
       50
176
     0
 90
       50
176
     0
 90
       50
176
     0
290
     0
176
     0
 90
       50
176
     0
 62
   256
176
     0
 40
1.0
176
     0
 90
        2
176
     0
  1
strokes_ogs.tif
176
     0
290
     0
176
     0
 40
1.0
176
     0
 40
1.0
176
     0
  0
VISUALSTYLE
  5
33
102
{ACAD_REACTORS
330
2A
102
}
330
2A
100
AcDbVisualStyle
  2
Realistic
 70
     8
177
     3
291
     0
 70
    58
 90
        2
176
     1
 90
        3
176
     1
 90
        0
176
     1
 90
        2
176
     1
 40
0.6
176
     1
 40
30.0
176
     1
 62
     7
420
 16777215
176
     1
 90
        0
176
     1
 90
        0
176
     1
 62
     7
176
     1
 62
   257
176
     1
 90
        1
176
     1
 90
        1
176
     1
 40
1.0
176
     1
 90
        8
176
     1
 62
   257
176
     1
 40
1.0
176
     1
 90
        1
176
     1
 90
        6
176
     1
 90
        2
176
     1
 62
     7
176
     1
 90
        3
176
     1
 90
        0
176
     1
 90
        0
176
     1
290
     0
176
     1
 90
       13
176
     1
 40
0.0
176
     1
 90
        0
176
     1
290
     0
176
     1
290
     1
176
     1
290
     1
176
     1
290
     0
176
     1
290
     0
176
     1
290
     0
176
     1
290
     0
176
     1
290
     0
176
     1
290
     0
176
     1
 90
       50
176
     1
 40
0.0
176
     1
 40
1.0
176
     1
 90
        0
176
     1
 62
    18
420
        0
176
     1
 90
       50
176
     1
 90
        3
176
     1
 62
     5
420
      255
176
     1
290
     0
176
     1
 90
       50
176
     1
 90
       50
176
     1
 90
       50
176
     1
290
     0
176
     1
 90
       50
176
     1
 62
   256
176
     0
 40
1.0
176
     0
 90
        2
176
     1
  1
strokes_ogs.tif
176
     1
290
     0
176
     1
 40
1.0
176
     1
 40
1.0
176
     1
  0
VISUALSTYLE
  5
42
102
{ACAD_REACTORS
330
2A
102
}
330
2A
100
AcDbVisualStyle
  2
Shaded
 70
    27
177
     3
291
     0
 70
    58
 90
        2
176
     1
 90
        2
176
     1
 90
        1
176
     1
 90
        2
176
     1
 40
0.6
176
     1
 40
30.0
176
     1
 62
     7
420
 16777215
176
     1
 90
        0
176
     1
 90
        4
176
     1
 62
     7
176
     1
 62
   257
176
     1
 90
        1
176
     1
 90
        1
176
     1
 40
1.0
176
     1
 90
        8
176
     1
 62
   257
176
     1
 40
1.0
176
     1
 90
        1
176
     1
 90
        6
176
     1
 90
        2
176
     1
 62
     8
420
  7895160
176
     1
 90
        3
176
     1
 90
        0
176
     1
 90
        0
176
     1
290
     0
176
     1
 90
        5
176
     1
 40
0.0
176
     1
 90
        0
176
     1
290
     0
176
     1
290
     1
176
     1
290
     1
176
     1
290
     0
176
     1
290
     0
176
     1
290
     0
176
     1
290
     0
176
     1
290
     0
176
     1
290
     0
176
     1
 90
       50
176
     1
 40
0.0
176
     1
 40
1.0
176
     1
 90
        0
176
     1
 62
    18
420
        0
176
     1
 90
       50
176
     1
 90
        3
176
     1
 62
     5
420
      255
176
     1
290
     0
176
     1
 90
       50
176
     1
 90
       50
176
     1
 90
       50
176
     1
290
     0
176
     1
 90
       50
176
     1
 62
   256
176
     0
 40
1.0
176
     0
 90
        2
176
     1
  1
strokes_ogs.tif
176
     1
290
     0
176
     1
 40
1.0
176
     1
 40
1.0
176
     1
  0
VISUALSTYLE
  5
41
102
{ACAD_REACTORS
330
2A
102
}
330
2A
100
AcDbVisualStyle
  2
Shaded with edges
 70
    26
177
     3
291
     0
 70
    58
 90
        2
176
     1
 90
        2
176
     1
 90
        1
176
     1
 90
        2
176
     1
 40
0.6
176
     1
 40
30.0
176
     1
 62
     7
420
 16777215
176
     1
 90
        1
176
     1
 90
       10
176
     1
 62
     7
176
     1
 62
   257
176
     1
 90
        2
176
     1
 90
        1
176
     1
 40
1.0
176
     1
 90
        8
176
     1
 62
   257
176
     1
 40
1.0
176
     1
 90
        1
176
     1
 90
        6
176
     1
 90
        2
176
     1
 62
     7
176
     1
 90
        3
176
     1
 90
        0
176
     1
 90
        0
176
     1
290
     0
176
     1
 90
        5
176
     1
 40
0.0
176
     1
 90
        0
176
     1
290
     0
176
     1
290
     1
176
     1
290
     1
176
     1
290
     0
176
     1
290
     0
176
     1
290
     0
176
     1
290
     0
176
     1
290
     0
176
     1
290
     0
176
     1
 90
       50
176
     1
 40
0.0
176
     1
 40
1.0
176
     1
 90
        0
176
     1
 62
    18
420
        0
176
     1
 90
       50
176
     1
 90
        3
176
     1
 62
     5
420
      255
176
     1
290
     0
176
     1
 90
       50
176
     1
 90
       50
176
     1
 90
       50
176
     1
290
     0
176
     1
 90
       50
176
     1
 62
   256
176
     0
 40
1.0
176
     0
 90
        2
176
     1
  1
strokes_ogs.tif
176
     1
290
     0
176
     1
 40
1.0
176
     1
 40
1.0
176
     1
  0
VISUALSTYLE
  5
3E
102
{ACAD_REACTORS
330
2A
102
}
330
2A
100
AcDbVisualStyle
  2
Shades of Gray
 70
    23
177
     3
291
     0
 70
    58
 90
        2
176
     1
 90
        2
176
     1
 90
        3
176
     1
 90
        0
176
     1
 40
0.6
176
     1
 40
30.0
176
     1
 62
     7
420
 16777215
176
     1
 90
        2
176
     1
 90
        2
176
     1
 62
     7
176
     1
 62
     7
176
     1
 90
        1
176
     1
 90
        1
176
     1
 40
40.0
176
     1
 90
        8
176
     1
 62
     7
176
     1
 40
1.0
176
     1
 90
        1
176
     1
 90
        6
176
     1
 90
        2
176
     1
 62
     7
176
     1
 90
        3
176
     1
 90
        0
176
     1
 90
        0
176
     1
290
     0
176
     1
 90
        1
176
     1
 40
0.0
176
     1
 90
        0
176
     1
290
     0
176
     1
290
     1
176
     1
290
     1
176
     1
290
     0
176
     1
290
     0
176
     1
290
     0
176
     1
290
     0
176
     1
290
     0
176
     1
290
     0
176
     1
 90
       50
176
     1
 40
0.0
176
     1
 40
1.0
176
     1
 90
        0
176
     1
 62
    18
420
        0
176
     1
 90
       50
176
     1
 90
        3
176
     1
 62
     5
420
      255
176
     1
290
     0
176
     1
 90
       50
176
     1
 90
       50
176
     1
 90
       50
176
     1
290
     0
176
     1
 90
       50
176
     1
 62
   256
176
     0
 40
1.0
176
     0
 90
        2
176
     1
  1
strokes_ogs.tif
176
     1
290
     0
176
     1
 40
1.0
176
     1
 40
1.0
176
     1
  0
VISUALSTYLE
  5
3F
102
{ACAD_REACTORS
330
2A
102
}
330
2A
100
AcDbVisualStyle
  2
Sketchy
 70
    24
177
     3
291
     0
 70
    58
 90
        1
176
     1
 90
        2
176
     1
 90
        2
176
     1
 90
        0
176
     1
 40
0.6
176
     1
 40
30.0
176
     1
 62
     7
420
 16777215
176
     1
 90
        2
176
     1
 90
        2
176
     1
 62
     7
176
     1
 62
     7
176
     1
 90
        1
176
     1
 90
        1
176
     1
 40
40.0
176
     1
 90
       11
176
     1
 62
     7
176
     1
 40
1.0
176
     1
 90
        1
176
     1
 90
        6
176
     1
 90
        2
176
     1
 62
     7
176
     1
 90
        6
176
     1
 90
        0
176
     1
 90
        0
176
     1
290
     0
176
     1
 90
        1
176
     1
 40
0.0
176
     1
 90
        0
176
     1
290
     0
176
     1
290
     1
176
     1
290
     1
176
     1
290
     0
176
     1
290
     0
176
     1
290
     0
176
     1
290
     0
176
     1
290
     0
176
     1
290
     0
176
     1
 90
       50
176
     1
 40
0.0
176
     1
 40
1.0
176
     1
 90
        0
176
     1
 62
    18
420
        0
176
     1
 90
       50
176
     1
 90
        3
176
     1
 62
     5
420
      255
176
     1
290
     0
176
     1
 90
       50
176
     1
 90
       50
176
     1
 90
       50
176
     1
290
     0
176
     1
 90
       50
176
     1
 62
   256
176
     0
 40
1.0
176
     0
 90
        2
176
     1
  1
strokes_ogs.tif
176
     1
290
     0
176
     1
 40
1.0
176
     1
 40
1.0
176
     1
  0
VISUALSTYLE
  5
37
102
{ACAD_REACTORS
330
2A
102
}
330
2A
100
AcDbVisualStyle
  2
Thicken
 70
    13
177
     3
291
     1
 70
    58
 90
        2
176
     1
 90
        2
176
     1
 90
        0
176
     1
 90
        0
176
     1
 40
0.6
176
     1
 40
30.0
176
     1
 62
     7
420
 16777215
176
     1
 90
        1
176
     1
 90
        4
176
     1
 62
     7
176
     1
 62
   257
176
     1
 90
        1
176
     1
 90
        1
176
     1
 40
1.0
176
     1
 90
       12
176
     1
 62
     7
176
     1
 40
1.0
176
     1
 90
        1
176
     1
 90
        6
176
     1
 90
        2
176
     1
 62
     7
176
     1
 90
        5
176
     1
 90
        0
176
     1
 90
        0
176
     1
290
     0
176
     1
 90
        1
176
     1
 40
0.0
176
     1
 90
        0
176
     1
290
     0
176
     1
290
     1
176
     1
290
     1
176
     1
290
     0
176
     1
290
     0
176
     1
290
     0
176
     1
290
     0
176
     1
290
     0
176
     1
290
     0
176
     1
 90
       50
176
     1
 40
0.0
176
     1
 40
1.0
176
     1
 90
        0
176
     1
 62
    18
420
        0
176
     1
 90
       50
176
     1
 90
        3
176
     1
 62
     5
420
      255
176
     1
290
     0
176
     1
 90
       50
176
     1
 90
       50
176
     1
 90
       50
176
     1
290
     0
176
     1
 90
       50
176
     1
 62
   256
176
     0
 40
1.0
176
     0
 90
        2
176
     1
  1
strokes_ogs.tif
176
     1
290
     0
176
     1
 40
1.0
176
     1
 40
1.0
176
     1
  0
VISUALSTYLE
  5
30
102
{ACAD_REACTORS
330
2A
102
}
330
2A
100
AcDbVisualStyle
  2
Wireframe
 70
     5
177
     3
291
     0
 70
    58
 90
        0
176
     1
 90
        2
176
     1
 90
        0
176
     1
 90
        0
176
     1
 40
0.6
176
     1
 40
30.0
176
     1
 62
     7
420
 16777215
176
     1
 90
        1
176
     1
 90
        4
176
     1
 62
     7
176
     1
 62
   257
176
     1
 90
        1
176
     1
 90
        1
176
     1
 40
1.0
176
     1
 90
        0
176
     1
 62
   257
176
     1
 40
1.0
176
     1
 90
        1
176
     1
 90
        6
176
     1
 90
        2
176
     1
 62
     7
176
     1
 90
        3
176
     1
 90
        0
176
     1
 90
        0
176
     1
290
     0
176
     1
 90
        1
176
     1
 40
0.0
176
     1
 90
        0
176
     1
290
     0
176
     1
290
     1
176
     1
290
     1
176
     1
290
     0
176
     1
290
     0
176
     1
290
     0
176
     1
290
     0
176
     1
290
     0
176
     1
290
     0
176
     1
 90
       50
176
     1
 40
0.0
176
     1
 40
1.0
176
     1
 90
        0
176
     1
 62
    18
420
        0
176
     1
 90
       50
176
     1
 90
        3
176
     1
 62
     5
420
      255
176
     1
290
     0
176
     1
 90
       50
176
     1
 90
       50
176
     1
 90
       50
176
     1
290
     0
176
     1
 90
       50
176
     1
 62
   256
176
     0
 40
1.0
176
     0
 90
        2
176
     1
  1
strokes_ogs.tif
176
     1
290
     0
176
     1
 40
1.0
176
     1
 40
1.0
176
     1
  0
VISUALSTYLE
  5
40
102
{ACAD_REACTORS
330
2A
102
}
330
2A
100
AcDbVisualStyle
  2
X-Ray
 70
    25
177
     3
291
     0
 70
    58
 90
        2
176
     1
 90
        2
176
     1
 90
        1
176
     1
 90
        1
176
     1
 40
0.5
176
     1
 40
30.0
176
     1
 62
     7
420
 16777215
176
     1
 90
        1
176
     1
 90
        0
176
     1
 62
     7
176
     1
 62
   257
176
     1
 90
        1
176
     1
 90
        1
176
     1
 40
1.0
176
     1
 90
        8
176
     1
 62
     7
176
     1
 40
1.0
176
     1
 90
        1
176
     1
 90
        6
176
     1
 90
        2
176
     1
 62
     7
176
     1
 90
        3
176
     1
 90
        0
176
     1
 90
        0
176
     1
290
     0
176
     1
 90
       13
176
     1
 40
0.0
176
     1
 90
        0
176
     1
290
     0
176
     1
290
     1
176
     1
290
     1
176
     1
290
     0
176
     1
290
     0
176
     1
290
     0
176
     1
290
     0
176
     1
290
     0
176
     1
290
     0
176
     1
 90
       50
176
     1
 40
0.0
176
     1
 40
1.0
176
     1
 90
        0
176
     1
 62
    18
420
        0
176
     1
 90
       50
176
     1
 90
        3
176
     1
 62
     5
420
      255
176
     1
290
     0
176
     1
 90
       50
176
     1
 90
       50
176
     1
 90
       50
176
     1
290
     0
176
     1
 90
       50
176
     1
 62
   256
176
     0
 40
1.0
176
     0
 90
        2
176
     1
  1
strokes_ogs.tif
176
     1
290
     0
176
     1
 40
1.0
176
     1
 40
1.0
176
     1
  0
DICTIONARYVAR
  5
202
102
{ACAD_REACTORS
330
201
102
}
330
201
100
DictionaryVariables
280
     0
  1
1:1
  0
DICTIONARYVAR
  5
207
102
{ACAD_REACTORS
330
201
102
}
330
201
100
DictionaryVariables
280
     0
  1
Standard
  0
DICTIONARYVAR
  5
206
102
{ACAD_REACTORS
330
201
102
}
330
201
100
DictionaryVariables
280
     0
  1
Standard
  0
DICTIONARYVAR
  5
20A
102
{ACAD_REACTORS
330
201
102
}
330
201
100
DictionaryVariables
280
     0
  1
6.000000
  0
DICTIONARY
  5
203
330
6A
100
AcDbDictionary
280
     1
281
     1
  3
ACAD_ROUNDTRIP_2008_TABLESTYLE_CELLSTYLEMAP
360
204
  0
CELLSTYLEMAP
  5
204
102
{ACAD_REACTORS
330
203
102
}
330
203
100
AcDbCellStyleMap
 90
        3
300
CELLSTYLE
  1
TABLEFORMAT_BEGIN
 90
        5
170
     1
 91
        0
 92
    32768
 62
   257
 93
        1
300
CONTENTFORMAT
  1
CONTENTFORMAT_BEGIN
 90
        0
 91
        0
 92
        4
 93
        0
300

 40
0.0
140
1.0
 94
        5
 62
     0
340
11
144
6.0
309
CONTENTFORMAT_END
171
     1
301
MARGIN
  1
CELLMARGIN_BEGIN
 40
1.5
 40
1.5
 40
1.5
 40
1.5
 40
1.5
 40
1.5
309
CELLMARGIN_END
 94
        6
 95
        1
302
GRIDFORMAT
  1
GRIDFORMAT_BEGIN
 90
        0
 91
        1
 62
     0
 92
       -2
340
14
 93
        0
 40
0.045
309
GRIDFORMAT_END
 95
        2
302
GRIDFORMAT
  1
GRIDFORMAT_BEGIN
 90
        0
 91
        1
 62
     0
 92
       -2
340
14
 93
        0
 40
0.045
309
GRIDFORMAT_END
 95
        4
302
GRIDFORMAT
  1
GRIDFORMAT_BEGIN
 90
        0
 91
        1
 62
     0
 92
       -2
340
14
 93
        0
 40
0.045
309
GRIDFORMAT_END
 95
        8
302
GRIDFORMAT
  1
GRIDFORMAT_BEGIN
 90
        0
 91
        1
 62
     0
 92
       -2
340
14
 93
        0
 40
0.045
309
GRIDFORMAT_END
 95
       16
302
GRIDFORMAT
  1
GRIDFORMAT_BEGIN
 90
        0
 91
        1
 62
     0
 92
       -2
340
14
 93
        0
 40
0.045
309
GRIDFORMAT_END
 95
       32
302
GRIDFORMAT
  1
GRIDFORMAT_BEGIN
 90
        0
 91
        1
 62
     0
 92
       -2
340
14
 93
        0
 40
0.045
309
GRIDFORMAT_END
309
TABLEFORMAT_END
  1
CELLSTYLE_BEGIN
 90
        1
 91
        1
300
_TITLE
309
CELLSTYLE_END
300
CELLSTYLE
  1
TABLEFORMAT_BEGIN
 90
        5
170
     1
 91
        0
 92
        0
 62
   257
 93
        1
300
CONTENTFORMAT
  1
CONTENTFORMAT_BEGIN
 90
        0
 91
        0
 92
        4
 93
        0
300

 40
0.0
140
1.0
 94
        5
 62
     0
340
11
144
4.5
309
CONTENTFORMAT_END
171
     1
301
MARGIN
  1
CELLMARGIN_BEGIN
 40
1.5
 40
1.5
 40
1.5
 40
1.5
 40
1.5
 40
1.5
309
CELLMARGIN_END
 94
        6
 95
        1
302
GRIDFORMAT
  1
GRIDFORMAT_BEGIN
 90
        0
 91
        1
 62
     0
 92
       -2
340
14
 93
        0
 40
0.045
309
GRIDFORMAT_END
 95
        2
302
GRIDFORMAT
  1
GRIDFORMAT_BEGIN
 90
        0
 91
        1
 62
     0
 92
       -2
340
14
 93
        0
 40
0.045
309
GRIDFORMAT_END
 95
        4
302
GRIDFORMAT
  1
GRIDFORMAT_BEGIN
 90
        0
 91
        1
 62
     0
 92
       -2
340
14
 93
        0
 40
0.045
309
GRIDFORMAT_END
 95
        8
302
GRIDFORMAT
  1
GRIDFORMAT_BEGIN
 90
        0
 91
        1
 62
     0
 92
       -2
340
14
 93
        0
 40
0.045
309
GRIDFORMAT_END
 95
       16
302
GRIDFORMAT
  1
GRIDFORMAT_BEGIN
 90
        0
 91
        1
 62
     0
 92
       -2
340
14
 93
        0
 40
0.045
309
GRIDFORMAT_END
 95
       32
302
GRIDFORMAT
  1
GRIDFORMAT_BEGIN
 90
        0
 91
        1
 62
     0
 92
       -2
340
14
 93
        0
 40
0.045
309
GRIDFORMAT_END
309
TABLEFORMAT_END
  1
CELLSTYLE_BEGIN
 90
        2
 91
        1
300
_HEADER
309
CELLSTYLE_END
300
CELLSTYLE
  1
TABLEFORMAT_BEGIN
 90
        5
170
     1
 91
        0
 92
        0
 62
   257
 93
        1
300
CONTENTFORMAT
  1
CONTENTFORMAT_BEGIN
 90
        0
 91
        0
 92
        4
 93
        0
300

 40
0.0
140
1.0
 94
        2
 62
     0
340
11
144
4.5
309
CONTENTFORMAT_END
171
     1
301
MARGIN
  1
CELLMARGIN_BEGIN
 40
1.5
 40
1.5
 40
1.5
 40
1.5
 40
1.5
 40
1.5
309
CELLMARGIN_END
 94
        6
 95
        1
302
GRIDFORMAT
  1
GRIDFORMAT_BEGIN
 90
        0
 91
        1
 62
     0
 92
       -2
340
14
 93
        0
 40
0.045
309
GRIDFORMAT_END
 95
        2
302
GRIDFORMAT
  1
GRIDFORMAT_BEGIN
 90
        0
 91
        1
 62
     0
 92
       -2
340
14
 93
        0
 40
0.045
309
GRIDFORMAT_END
 95
        4
302
GRIDFORMAT
  1
GRIDFORMAT_BEGIN
 90
        0
 91
        1
 62
     0
 92
       -2
340
14
 93
        0
 40
0.045
309
GRIDFORMAT_END
 95
        8
302
GRIDFORMAT
  1
GRIDFORMAT_BEGIN
 90
        0
 91
        1
 62
     0
 92
       -2
340
14
 93
        0
 40
0.045
309
GRIDFORMAT_END
 95
       16
302
GRIDFORMAT
  1
GRIDFORMAT_BEGIN
 90
        0
 91
        1
 62
     0
 92
       -2
340
14
 93
        0
 40
0.045
309
GRIDFORMAT_END
 95
       32
302
GRIDFORMAT
  1
GRIDFORMAT_BEGIN
 90
        0
 91
        1
 62
     0
 92
       -2
340
14
 93
        0
 40
0.045
309
GRIDFORMAT_END
309
TABLEFORMAT_END
  1
CELLSTYLE_BEGIN
 90
        3
 91
        2
300
_DATA
309
CELLSTYLE_END
  0
ENDSEC
  0
EOF
